Oops, an error
Loading. Please wait.

Grandes Sueños Tab

by Smitten
23 views 1 this week
no commentswrite comment
1 2 3 4 5
3 more votes to show rating
add to favorites
launch autoscroll
font size
0
reset
how to read this tab
guitar tuner
×
Best way to learn
"Grandes Sueños"
Autoscroll
slow
fast
+/-
esc
set tempo
stop
Hey what?s up!? Jeje
Pues aquí les traigo la transcripción
1000% correcta de ?Grandes Sueños?
¡En versión acústica!
Ya que la transcripción anterior estaba
¡Pésima! Dedicada a? bueno ella ya sabe?
Y recuerden antes de calificar vean el
video donde se ve como se toca, en Youtube
y es este:

Recuerden, no es virus ;) ¡Quiero ese 10!
Cualquier duda de los acordes, se encuentran
hasta debajo de la transcripción.


D

D                       Bm
Veo que te olvidaste de todo
G                     D                   A
Y lo que ayer sentías  hoy no lo sientes mas
D                       Bm
Y que renunciaste de algún modo
G                     D             A
a todo lo que fuimos  y por otro lugar

G   Bm    G  Bm
y que fue del amor?
G        Bm              A
Desperté y todo termino

F#                Bm
Y esos sueños que imagine
G                         D
Hoy se derrumbaron juntos con mi fe
F#                       Bm
No quiero un consuelo ni lo buscare
G                   A
La historia sigue en pie

D                       Bm
Yo fui el primero en tu vida
G                       D                A
Y aquellos sentimientos no te importaron mas
D                     Bm
Y dejaste abierta una herida
G                         D             A
Que aunque pase el tiempo ya no se va a cerrar

G   Bm    G  Bm
y que fue del amor?
G         Bm              A
Se fue sin nunca decir adiós

F#                Bm
Y esos sueños que imagine
G                         D
Hoy se derrumbaron juntos con mi fe
F#                       Bm
No quiero un consuelo ni lo buscare
G                   A
La historia sigue en pie
     C#m
Y lo se?

Solo de guitarra

F#m G# C#m
C#m F#m Fsus4/G A(5)

Y para terminar:

e|---------------------------------------------2-2-2---|
B|-------------2--------------2-------------2--2-2-2---|
G|----0---0---3-3----0---0---3-3---0---0---3-3-3-3-3---|
D|---0---0---4------0---0---4-----0---0---4----4-4-4---|
A|--2---2---4------2---2---4-----2---2---4-------4-4---|
E|-3---0----------3---0---------3---0------------2-2---|

 |Rasgueado normal del| | Aquí dan un ?palm mute? durante
 |   acorde ?A?       | V  dos rasgueos rápidos para terminar
e|-0-0-0-0-0-0-0-0-0-0--x-x------|   el palm mute lo ponen
B|-2-2-2-2-2-2-2-2-2-2--x-x------|  como si quisieran hacer un ?G?
G|-2-2-2-2-2-2-2-2-2-2--x-x------|
D|-2-2-2-2-2-2-2-2-2-2--x-x------|
A|-0-0-0-0-0-0-0-0-0-0--x-x------|
E|-0-0-0-0-0-0-0-0-0-0--x-x------|

F#                Bm
Y esos sueños que imagine
G                         D
Hoy se derrumbaron juntos con mi fe
F#                       Bm
No quiero un consuelo ni lo buscare
G                   A
La historia sigue en pie

[E] Este lo usa como intermedio
De esta forma:
Rasgueo en esta dirección
   ^ ^ ^
   | | |
   | | |
e|-0-0-0-2---|
B|-0-0-0-2---|
G|-1-1-1-3---|
D|-2-2-2-4---|
A|-2-2-2-4---|
E|-0-0-0-2---|

F#                Bm
Y esos sueños que imagine
G                         D
Hoy se derrumbaron juntos con mi fe
F#                       Bm
No quiero un consuelo ni lo encontrare
G                 Gm
La historia sigue y vivirá

e|-3------------|
B|---3----------|
G|-----3--------|
D|-------5------|
A|--------------|
E|---------3----|

D
En tu piel...

Y por si lo notaron o no? esta parte es la que
se debe de tocar cuando comienza el pre coro de:
?¿Y que fue del amor?
Se fue sin nunca decir adiós?
Así que les dejo marcados los acordes de
Ubicación:

Riff del pre coro:
   G        Bm     G       Bm    G       Bm
e|--------------------------------------------|
B|-------------2--------------2-------------2-|
G|----0---0---3-3----0---0---3-3---0---0---3--|
D|---0---0---4------0---0---4-----0---0---4---|
A|--2---2---4------2---2---4-----2---2---4----|
E|-3---0----------3---0---------3---0---------|

Acordes usados:
    G  Bm D  A  F# C#m F#m G# Fsus4/G A(5) Gm  E
e|--3--2--2--0--2---4---2--4----6------5----3--0-|
B|--3--3--3--2--2---5---2--4----6------5----3--0-|
G|--0--4--2--2--3---6---2--5----5------6----3--1-|
D|--0--4--0--2--4---6---4--6----5------7----5--2-|
A|--2--2--0--0--4---4---4--6----X------7----5--2-|
E|--3--2--0--0--2---4---2--4----X------5----3--0-|
Suggest correction
Give kudos to tab author, rate the tab!
1 2 3 4 5
comments
print report bad tab
guest
You may want to rate the tab now too:
select rating
Wanna post a correction for this tab? Suggest correction