Oops, an error
Loading. Please wait.

Más De Nada tab

by Smitten
43 views 1 this week
no commentswrite comment
1 2 3 4 5
3 more votes to show rating
add to favorites
×
Save as Personal and add changes to this tab that will be seen only by you. Learn more ›
×
You can save this tab as Personal to edit and correct it or add notes. All changes will be seen only by you. Learn more »
launch autoscroll
font size
0
reset
how to read this tab
guitar tuner
edit
Autoscroll
slow
fast
+/-
esc
set tempo
stop
Intro:

La intro es un poco dificil al principio,
pero despues de practicarla sale joya! :)

1|-xx--xx--xx--x------xx--xx--xx--x--xx-xx------
2|-15--14--12--7------15--14--10--7--10-12------
3|-xx--xx--xx--x------xx--xx--xx--x--xx-xx------   X2
4|-xx--xx--xx--x------xx--xx--xx--x--xx-xx------
5|-14--12--10--5------14--12--09--5--09-10------
6|-xx--xx--xx--x------xx--xx--xx--x--xx-xx------


TAN CANSADO DE LLORARTE SIN SABER
PORQUE DUELE LO QUE DUELE
SI LO QUE HICE FUE EL CAUSANTE DEL AYER
SI LO QUE SE VA NO VUELVE

  (En esta parte patrick toca esto):
1|----------------------------------------------
2|-15----14----12----12----9----7----9----12
3|----------------------------------------------

Y TAL VEZ ESTE CAMBIANDO SIN QUERER
COMO CAMBIAN LOS QUE PIERDEN
LA MENTIRA PEGA FUERTE Y OTRA VEZ
BARRE TODO LO QUE VIENE

1|-xx--xx--xx--x------xx--xx--xx--x--xx-xx------
2|-15--14--12--7------15--14--10--7--10-12------
3|-xx--xx--xx--x------xx--xx--xx--x--xx-xx------
4|-xx--xx--xx--x------xx--xx--xx--x--xx-xx------
5|-14--12--10--5------14--12--09--5--09-10------
6|-xx--xx--xx--x------xx--xx--xx--x--xx-xx------

1|-xx--xx------------
2|-15--14--7---------
3|-xx--xx-----7------
4|-xx--xx--------7---
5|-14--12------------
6|-xx--xx------------


      D            A
SI NO ESTAS, SI TE VAS
     Bm            G              D
SI TE MARCHAS COMO YO TE MARCO A VOS
       A          Bm
MAS DE MI, MAS DE MAS
       G
MAS DE NADA


1|-----------------------5/7/5--
2|------------------9--7--------
3|--6/7--9--7-------------------
4|-------------9--9-------------
5|------------------------------
6|------------------------------

COMO SIEMPRE CAIGO MUERTO
Y AHORA QUE SOLO QUEDA LO QUE DUELE
VIVO FUERTES NOCHES QUE NO ME HACEN BIEN
SOBRE TODO CUANDO VUELVES
   (Vuelve a hacer lo mismo que al principio):
1|----------------------------------------------
2|-15----14----12----12----9----7----9----12
3|----------------------------------------------

Y TAL VEZ ESTE FALLANDO SIN SABER
COMO FALLAN LOS QUE SIENTEN
EL SILENCIO PESADILLA DE LO QUE
NADIE SABE REPORNERSE

1|-xx--xx--xx--x------xx--xx--xx--x--xx-xx------
2|-15--14--12--7------15--14--10--7--10-12------
3|-xx--xx--xx--x------xx--xx--xx--x--xx-xx------
4|-xx--xx--xx--x------xx--xx--xx--x--xx-xx------
5|-14--12--10--5------14--12--09--5--09-10------
6|-xx--xx--xx--x------xx--xx--xx--x--xx-xx------

1|-xx--xx------------
2|-15--14--7---------
3|-xx--xx-----7------
4|-xx--xx--------7---
5|-14--12------------
6|-xx--xx------------


      D            A
SI NO ESTAS, SI TE VAS
     Bm            G              D
SI TE MARCHAS COMO YO TE MARCO A VOS
       A          Bm
MAS DE MI, MAS DE MAS
         G             D
GUARDAS TODO POR LOS DOS
        A        Bm
EN MI VOZ, EL DOLOR
        G          D
EN TU CUERPO LO MEJOR
 A          Bm
MAS DE MI, MAS DE MAS
       G
MAS DE NADA...

(El solo es masomenos asi, ahi que tener en cuenta que
 se toca con un pedal)

1|--------------7-9---------------------------
2|------7-7-7--7----7--------9^-----9^-------7
3|--9^----------------7-7-7------7------7-9---
4|--------------------------------------------
5|--------------------------------------------
6|--------------------------------------------

1|----------------------------------------------------
2|----------------------------------------------------
3|--9^-9^-9^-9^--9--7----------7-6-7-6-7-6------------
4|--------------------9--7-7-7--------------9--7------
5|-----------------------------------------------9-9-9
6|----------------------------------------------------

1|-----------------------------------------------------------------5/7/5-
2|---------------------------------------------------------------7-------
3|--9^-9^-9^-9^--9--7----------7-6-7-6-7-6------------------7--9---------
4|--------------------9--7-7-7--------------9--7---7---9-----------------
5|-----------------------------------------------9-----------------------
6|-----------------------------------------------------------------------


VIVO FUERTES NOCHES QUE NO ME HACEN BIEN
SOBRE TODO CUANDO VUELVES

         D          A
SI NO ESTAS, SI TE VAS
     Bm            G              D
SI TE MARCHAS COMO YO TE MARCO A VOS
       A          Bm
MAS DE MI, MAS DE MAS
         G             D
GUARDAS TODO POR LOS DOS
        A        Bm
EN MI VOZ, EL DOLOR
        G          D
EN TU CUERPO LO MEJOR
 A          Bm
MAS DE MI, MAS DE MAS
       G
MAS DE NADA
        Gm
MAS DE NADA...


Cierra con la intro.


Espero que les guste :)

cualquier cosa yo_ricki@

chau

            
            
Suggest correction
Creating personal tab
Creating personal tab
You can edit any tab online and save it as your Personal.

You can edit, replace or remove any tab part or add personal notes – all changes will be seen only by you.

Personal tabs can be accessed anytime from any device, even offline.
Learn more »
Give kudos to tab author, rate the tab!
1 2 3 4 5
comments
print report bad tab
guest
Wanna post a correction for this tab? Suggest correction