Oops, an error
Loading. Please wait.

Nada Para Mí, Nada Para Vos Tab

by Smitten
20 views 1 this week
no commentswrite comment
1 2 3 4 5
3 more votes to show rating
add to favorites
launch autoscroll
font size
0
reset
how to read this tab
guitar tuner
Autoscroll
slow
fast
+/-
esc
set tempo
stop
Intro: MI - SOL# - DO#m - SI

Punteo (Teclado)

E----------------------------------------------
B----------------------------------------------
G-13-13-13/14/13-11-11-11-13-11-9-9-9-9-9-7-9-11
D----------------------------------------------
A----------------------------------------------
E----------------------------------------------

E----------------------------------------------
B----------------------------------------------
G-13-13-13/14/13-11-11-11-13-11-9-9-9-9-9-7-9-11
D----------------------------------------------
A----------------------------------------------
E----------------------------------------------

MI     SOL#         DO#m             SI
 Voy a decir todo lo que tenga que decir
MI     SOL#                 DO#m           SI
 voy a sufrir, no mas de lo que quiera hoy sufrir
       LA         SI        LA
y tal vez no quieras verme mas
          SI
y no entiendas que no

MI               SOL#           DO#m      SI
Voy a sentir mas nada que ya no tenga que pensar
MI               SOL#         DO#m       SI
puedo escribirte todo lo que quiera hoy dejar
      LA         SI            LA
y tal vez, no sepa bien quien soy
       SI
pero llevo esto


MI  SOL#  DO#m        SI       LA
Ahh que dolor, queda nada para Mi
       SI        MI
queda nada para vos
  SOL# DO#m      SI           SOL#
y este rock me van a matar los dos
         LAm                   MI   SOL#  DO#m  SI
no sin antes dedicarte esta canción               esta cancion

MI - SOL# - DO#m - SI

E----------------------------------------------
B----------------------------------------------
G-13-13-13/14/13-11-11-11-13-11-9-9-9-9-9-7-9-11
D----------------------------------------------
A----------------------------------------------
E----------------------------------------------

E----------------------------------------------
B----------------------------------------------
G-13-13-13/14/13-11-11-11-13-11-9-9-9-9-9-7-9-11
D----------------------------------------------
A----------------------------------------------
E----------------------------------------------

         SOL#                  DO#m      SI
 Voy a probar con todo lo que haya que probar
MI         SOL#           DO#m      SI
 y voy a pedirte que me cuentes el final
      LA       SI             LA
y tal vez, no sepa bien quien sos
      LA
pero llevo esto


MI  SOL#  DO#m        SI       LA
Ahh que dolor, queda nada para mi
       SI        MI
queda nada para vos
  SOL# DO#m          SI     SOL#
y este rock me van a matar los dos
          LAm                 MI
no sin antes dedicarte esta canción

Solo: MI - SOL# - DO#m - SI

E--------16~-12--12/14-14^-15/12/11-16~-14~--
B-12~-13~-----------------------------------
G-------------------------------------------
D-------------------------------------------
A-------------------------------------------
E-------------------------------------------

E-11-12--------12-11-9----------------------
B-------12-9-----------12-9~----------------
G-------------------------------------------
D-------------------------------------------
A-------------------------------------------
E-------------------------------------------

 Que inocente de mi, que estaba a tus pies

E-------------------------------------------
B-9-10-12-12/12^-10-9----10/9/7---10--------
G------------------------------9------------
D-------------------------------------------
A-------------------------------------------
E-------------------------------------------

E-------------------------------------------
B-10/9/7--10---10/9/7------7-9-9-10-10-12-12^-12
G-------9------------9--9-------------------
D-------------------------------------------
A-------------------------------------------
E-------------------------------------------


                                             SI SI
Voy a probar con todo lo que haya que probar
MI         SOL#           DO#m      SI
y voy a pedirte que me cuentes el final
      LA       SI             LA
y tal vez, no sepa bien quien soy
      LA
pero llevo esto
MI  SOL#  DO#m        SI       LA
Ahh que dolor, queda nada para mi
       SI        MI
queda nada para vos
  SOL# DO#m          SI       SOL#
y este rock me van a matar los dos
          LAm                 MI   SOL#  DO#m  SI
no sin antes dedicarte esta canción esta cancion

Final: MI - SOL# - DO#m - SI - MI

E----------------------------------------------
B----------------------------------------------
G-13-13-13/14/13-11-11-11-13-11-9-9-9-9-9-7-9-11
D----------------------------------------------
A----------------------------------------------
E----------------------------------------------

E----------------------------------------------
B----------------------------------------------
G-13-13-13/14/13-11-11-11-13-11-9-9-9-9-9-7-9-11
D----------------------------------------------
A----------------------------------------------
E----------------------------------------------
Suggest correction
Give kudos to tab author, rate the tab!
1 2 3 4 5
comments
print report bad tab
guest
Wanna post a correction for this tab? Suggest correction