Oops, an error
Loading. Please wait.

Nada Para Mí, Nada Para Vos Chords

version 2
version 2

Whole song

by Smitten
26 views 3 this week
no commentswrite comment
1 2 3 4 5
3 more votes to show rating
add to favorites
launch autoscroll
font size
0
reset
transpose
0
reset
simplify chords
display chords
guitar tuner
×
Best way to learn
"Nada Para Mí, Nada Para Vos"
Autoscroll
slow
fast
+/-
esc
set tempo
stop
Intro: E5 - G#5 - C#5 - B5  x2


E5        G#5            C#5          B5
 Voy a decir todo lo que tenga que decir
E5        G#5               C#5                B5
 Voy a sufrir, no más de lo que quiera hoy sufrir
       A       B            A
Y tal vez no quieras verme más
         B
Y no entiendas que no

E5               G#5            C#5           B5
Voy a sentir mas nada que ya no tenga que pensar
E5               G#5          C#5          B5
Puedo escribirte todo lo que quiera hoy dejar
       A       B               A
Y tal vez, no sepa bien quien soy
       B
Pero llevo esto


E5  G#5    C#5        F         A
Ahh que dolor, queda nada para mí
       Am        E5
Queda nada para vos
 G#5    C#5         F            A
Y este rock me van a matar los dos
       Am                        E5  G#5  C#5  B5
No sin antes dedicarte esta canción
          E5  D5  C#5  (C - D)  E5--->Deja sonar con un solo golpe
Esta canción               |
                           Dos golpes a estos dos acordes


(Silencio)
              G#5          C#5             B5
 Voy a probar con todo lo que haya que probar
E5         G#5           C#5          B5
 Y voy a pedirte que me cuentes el final
       A       B               A
Y tal vez, no sepa bien quien sos
       B
Pero llevo esto


E5  G#5    C#5        F         A
Ahh que dolor, queda nada para mí
       Am        E5
Queda nada para vos
 G#5    C#5        F         A
Y este rock me van a matar los dos
          Am
No sin antes dedicarte esta canción

Sólo: E5 - G#5 - C#5 - B5

E--------16~-12-12-14-14^-16-14-12-14~-----------
B-12~-13~----------------------------------------
G------------------------------------------------
D------------------------------------------------
A------------------------------------------------
E------------------------------------------------

E-16~-14-11-12--------12-11----------------------
B--------------12-9---------12-10-9~-------------
G------------------------------------------------
D------------------------------------------------
A------------------------------------------------
E------------------------------------------------
 A       Am      E5         D5         C#5  C5
 Que inocente de mi, que estaba a tus pies
E------------------------------------------------
B-9-10-12-12/12^-10-9----10/9/7---10-------------
G------------------------------9-----------------
D------------------------------------------------
A------------------------------------------------
E------------------------------------------------
E5    G#5         C#5   B5  C  D  E5--->Deja sonar con un solo golpe
 Uuuh, uh uh uh uh uuh uh
E------------------------------------------------
B-10/9/7--10---10/9/7------7-9-9-10-10-12-12^-12-
G-------9------------9--9------------------------
D------------------------------------------------
A------------------------------------------------
E------------------------------------------------

(Silencio)
                                              B5 (Dos golpes)
 Voy a probar con todo lo que haya que probar
E5          G#5          C#5          B5
 Y voy a pedirte que me cuentes el final
       A       B               A
Y tal vez, no sepa bien quien soy
       B
Pero llevo esto


E5  G#5   C#5         F        A
Ahh que dolor, queda nada para mí
       Am        E5
Queda nada para vos
 G#5    C#5        F            A
Y este rock me van a matar los dos
       Am                    E5  G#5  C#5  B5
No sin antes dedicarte esta canción
          E5  D5  C#5  (C - D) ** E5--->Deja sonar con un solo golpe
Esta canción              |
                          Dos golpes a estos dos acordes


*= Muteado

Espero les guste gente, disfrútenlo... Un temazooo!
Saludos.


R&R
Suggest correction
Give kudos to tab author, rate the tab!
1 2 3 4 5
comments
print report bad tab
guest
You may want to rate the tab now too:
select rating
Wanna post a correction for this tab? Suggest correction