Oops, an error
Loading. Please wait.

Por Qué? Tab

by Smitten
7 views 1 this week
no commentswrite comment
1 2 3 4 5
3 more votes to show rating
add to favorites
launch autoscroll
font size
0
reset
how to read this tab
guitar tuner
Autoscroll
slow
fast
+/-
esc
set tempo
stop
Acá tienen la tablatura completa con solo incluido


Intro: Gtr.1 F#5 G#5 B5 C#5 X4
En las tercera y cuarta vueltas gtr. 2 hace F#5 y deja sonar
luego hace un pickslide

Verso: repite la intro
Ya no ves, que no puede seguir asi
Ya no ves, no es dificil sonreir

D#5                        F#5
    Pero cuando estas solo te sientes mal
D#5                        F#5
    Pero cuando estas solo te sientes mal
        C#5        B5
    Por que, si tenes

    mucho mucho más que eso

Intro X2

Intro X 4
No esperes, que te vengan a levantar
si sabes, que tu solo hoy podras

D#5                        F#5
   Pero cuando estes solo, crece conmigo
D#5                        F#5
   Pero cuando estes solo, crece conmigo
       C#5        B5
   Por que, si tenes

   mucho mucho más que eso

Solo
E----------------------------------------------------------------------------------------------------------------------------
B----------------------------------------------14b16r14-12-11-12-12-11----11-11--11--11--11---------------------------------
G-----11-11-11-11-----11-13b14r13-11----11-11--------------------------13----13b-13b-13b-13b-13br-11-13-11---11---11---11--11
D-13---------------13----------------13--------------------------------------------------------------------13---13---13--13--
A----------------------------------------------------------------------------------------------------------------------------
E----------------------------------------------------------------------------------------------------------------------------

E----------------------------------------------------------------------------------------------------------------------------
B--14b16---14b16v--14b16r14-11-14-11-----11------14----------------14b16---14b16v--14b16r14-11-14-11----11---11----11--------
G-------------------------------------13----13/15---15-13-15-13-11-----------------------------------13----13---13----13-----
D----------------------------------------------------------------------------------------------------------------------------
A----------------------------------------------------------------------------------------------------------------------------
E----------------------------------------------------------------------------------------------------------------------------

E----------------------------------------------------------------------------------------------------------------------------
B----------------------------------------------------------------------------------------------------------------------------
G---------11---11---11---11---11---11---11---11---11---11--------------------------------------------------------------------
D--11--13----13---13---13---13---13---13---13---13---13----------------------------------------------------------------------
A----------------------------------------------------------------------------------------------------------------------------
E----------------------------------------------------------------------------------------------------------------------------

D#5                        F#5
   Pero cuando estes solo, crece conmigo
D#5                        F#5
   Pero cuando estes solo, crece conmigo
     C#5        B5
   Por que, si tenes
                           F#5                           F#5
   mucho mucho más que eso

F#5(silenciado)
C#5                 F#5
mucho mucho más que eso X6

Final: C#5 B5 F#5  


Hecho por Sebastián Rossini
Cualquier duda, sugerencia lo que sea maileen a shingo_starr@
Suggest correction
Give kudos to tab author, rate the tab!
1 2 3 4 5
comments
print report bad tab
guest
You may want to rate the tab now too:
select rating
Wanna post a correction for this tab? Suggest correction