Oops, an error
Loading. Please wait.

Volverás Tab

by Smitten
13 views 1 this week
no commentswrite comment
1 2 3 4 5
3 more votes to show rating
add to favorites
launch autoscroll
font size
0
reset
how to read this tab
guitar tuner
Autoscroll
slow
fast
+/-
esc
set tempo
stop
Pues esta es la versión 100% correcta
es la versión que canta Patrick Steve en
YouTube aquí está el link si tienen dudas


Quiero ese 10!!! Va y esta canción va dedicada
a una persona que ya sabe?
?Uno nunca se sabe lo que tiene
hasta que está perdido?
ah y también tiene el solo de la eléctrica
y pues chequen hasta el final si
tienen dudas de los acordes.

Intro: (A) 2 tiempos

Amaj7     F#m                        D                  A
Quédate aquí, Te prometo que en mi vida siempre tú vas a vivir,
Amaj7     F#m                        D                A
Quédate aquí, te prometo que algún día volveré a ser feliz,
Amaj7     F#m                       D                  A
No puedo vivir, si fue solo una mentira el amor que sentías por mí,
Amaj7     F#m                        D               A
No puedo vivir, si fue fácil olvidarme también fue fácil mentir.
       D               E           F#m       A
Y tal vez cuando comprendas todo lo que fuiste en mí,
       D               E           F#m       A
Pero cuando mi amor muera como un día murió en ti.
      D        E
Volverás, volverás.

(A) 2 tiempos
Amaj7     F#m                        D                  A
Quédate aquí, aunque muera abandonado yo voy a morir en ti,
Amaj7     F#m                        D                  A
Quédate aquí, aunque me haya equivocado como un tonto me
arrastré hasta el fin,
Amaj7     F#m                        D                  A
No puedo vivir, si yo quise remediarlo y ya no tienes interés en mí,
Amaj7     F#m                        D                  A
No puedo vivir, sabiendo que por tu orgullo me has cambiado por un infeliz.
       D               E           F#m       A
Y tal vez cuando comprendas todo lo que fuiste en mí,
       D               E           F#m       A
Pero cuando mi amor muera como un día murió en ti.
      D        E
Volverás, volverás.

(Solo acústico):
A Amaj7 F#m D A E D F#m E

A Amaj7 F#m D A E F#m G E

(Solo canción original):
e|-------------------------------------------------------------------|
B|-------------------------------------------------------------------|
G|-------------------------------------------------------------------|
D|--7----7-6-7-4----7-6-4--------------------------------------------|
A|------------------------7----4-5-4--3/4-5-4----4------------4------|
E|--------------------------------------------7----7-5----5-7---5-4--|


e|-3/5-5-5-4-5----2--------------------------------------------------|
B|-------------------------5-5-5--------5-5-5-3-3-3-2-2-2-0-0-0-2-0--|
G|-------------2-----2-2-2-------2-2-2------------------------------2|
D|-------------------------------------------------------------------|
A|-------------------------------------------------------------------|
E|-------------------------------------------------------------------|

e|--3/5----4-5-7--3---4-2-0--4-2-0-2-4-2-0-2/12--|
B|-------7---------------------------------------|
G|-----------------------------------------------|
D|-----------------------------------------------|
A|-----------------------------------------------|
E|-----------------------------------------------|

       D               E           F#m       A
Y tal vez cuando comprendas todo lo que fuiste en mí,
       D               E           F#m       A
pero cuando mi amor muera como un día murió en ti.
      D        E
Volverás, volverás.
      D        E
volverás, volverás,
      D         Dm
volverás, volverás.

e|-1-------1~--|
B|---3---3-----|
G|-----2-------|
D|-------------|
A|-------------|
E|-------------|

           A             F#m         Dm(5)           Am(5)
Quédate aquí, quédate aquí, quédate aquí, quédate aquí.
          Am(5)         F#m            Am(5)
Quédate aquí, quédate aquí, quédate aquí, uhhh.
A

Acordes:
   A F#m D  E Amaj7 G Dm(5) Am(5) Dm
e|-0--2--2--0---0---3---5----5-----1--|
B|-2--2--3--0---2---3---6----5-----3--|
G|-2--2--2--1---1---0---7----5-----2--|
D|-2--4--0--2---2---0---7----7-----0--|
A|-0--4--0--2---0---2---5----7-----0--|
E|-0--2--0--0---0---3---5----5-----0--|
Suggest correction
Give kudos to tab author, rate the tab!
1 2 3 4 5
comments
print report bad tab
guest
Wanna post a correction for this tab? Suggest correction