Oops, an error
Loading. Please wait.

Magnéticos Bass

by Snake
5 views 1 this week
no commentswrite comment
1 2 3 4 5
3 more votes to show rating
add to favorites
×
Save as Personal and add changes to this tab that will be seen only by you. Learn more ›
×
You can save this tab as Personal to edit and correct it or add notes. All changes will be seen only by you. Learn more »
save as personal
new!
launch autoscroll
font size
0
reset
guitar tuner
Autoscroll
slow
fast
+/-
esc
set tempo
stop
Primera estrofa:
Sin bajo

Estribillo:
G-----------------------------------------------------------------|
D-----------------------------------------------------------------|
A-5-5-5-5-5-5-5-5-7-7-7-7-7-7-7-7-9-9-9-9-9-9-9-9-7-7-7-7-7-7-7-7-|
E-----------------------------------------------------------------|

Segunda Estrofa:
G-----------------------------------------------------|
D-------------------------------------6h7-6h7---6-7-9-|
A-5-----------------------4--4---4--5---------7-------|
E---5-4-2-0-2-4-0-2-4-5-2------4----------------------|

G---------------------------------------------------|
D---------------------------------------------------|
A--------4--4---4-5-----------------------4--4-4----|
E-2--2-2------4-----5-4-2-0-2-4-0-2-4-5-2-----------|

Estribillo
G-----------------------------------------------------------------|
D-----------------------------------------------------------------|
A-5-5-5-5-5-5-5-5-7-7-7-7-7-7-7-7-9-9-9-9-9-9-9-9-7-7-7-7-7-7-7-7-|
E-----------------------------------------------------------------|

Puente
G-----------------------------------------------------|
D-0-0-0-0/12-12-12-12---------------------------------|
A---------------------0-0-0-0-0-0-0-0-0-0-0-0-0-0-0-0-|
E-----------------------------------------------------|

G-----------------------------------------------------------------|
D-----------------------------------------------------------------|
A-0-0-0-0-0-0-0-0-0-0-0-0-0-0-0-0-5-5-5-5-5-5-5-5-5-5-5-5-5-5-5-5-|
E-----------------------------------------------------------------|

G-----------------------------------------------------------------|
D---------------------------------5-5-5-5-5-5-5-5-5-5-5-5-5-5-5-5-|
A-8-8-8-8-8-8-8-8-8-8-8-8-8-8-8-8---------------------------------|
E-----------------------------------------------------------------|

G-----------------------------------------------------------------|
D-----------------------------------------------------------------|
A-0-0-0-0-0-0-0-0-0-0-0-0-0-0-0-0-5-5-5-5-5-5-5-5-5-5-5-5-5-5-5-5-|
E-----------------------------------------------------------------|

G----------------------------------|
D----------------------------------|
A-8-8-8-8-8-8-8-8-8-8-8-8-8-8-8-8--|
E----------------------------------|

Estribillo
G-----------------------------------------------------------------|
D-----------------------------------------------------------------|
A-5-5-5-5-5-5-5-5-7-7-7-7-7-7-7-7-9-9-9-9-9-9-9-9-7-7-7-7-7-7-7-7-|
E-----------------------------------------------------------------|

Tercera Estrofa
G-----------------------------------------------------|
D-------------------------------------6h7-6h7---6-7-9-|
A-5-----------------------4--4---4--5---------7-------|
E---5-4-2-0-2-4-0-2-4-5-2------4----------------------|

G---------------------------------------------------|
D---------------------------------------------------|
A--------4--4---4-5-----------------------4--4-4----|
E-2--2-2------4-----5-4-2-0-2-4-0-2-4-5-2-----------|

Estribillo
G-----------------------------------------------------------------|
D-----------------------------------------------------------------|
A-5-5-5-5-5-5-5-5-7-7-7-7-7-7-7-7-9-9-9-9-9-9-9-9-7-7-7-7-7-7-7-7-|
E-----------------------------------------------------------------|

Final
G-----------------------------------------------------------------|
D-----------------------------------------------------------------|
A-5-5-5-5-5-5-5-5-7-7-7-7-7-7-7-7-9-----------7-----------5-------|
E-----------------------------------------------------------------|
Suggest correction
Give kudos to tab author, rate the tab!
1 2 3 4 5
comments
print report bad tab
guest
Wanna post a correction for this tab? Suggest correction