Oops, an error
Loading. Please wait.

Cuando Acaba El Placer tab

146 views 1 this week
no commentswrite comment
1 2 3 4 5
3 more votes to show rating
add to favorites
×
Save as Personal and add changes to this tab that will be seen only by you. Learn more ›
×
You can save this tab as Personal to edit and correct it or add notes. All changes will be seen only by you. Learn more »
launch autoscroll
font size
0
reset
how to read this tab
guitar tuner
edit
Autoscroll
slow
fast
+/-
esc
set tempo
stop
Para a los que le llega esta cancion... ahi esta el intro, el solo
y la correccion de los acordes.

SIGLATURA:

h= hammer (ligado)

p= pull (ligado)

/= slide ó resbalar

(=)= sostener la nota


Introduccion:
                                       Bm
e|---14----14----14----14----14=---2-4-5-7----------------------7-6-7/10--|
B|--------------------------------------------------------7p6-7-----------|
G|------14----14----14----14------------------------7-6-7-----------------|
D|---------------------------------4-6-7-9----9p7-9-----------------------|
A|------------------------------------------------------------------------|
E|---------------------------------2-4-5-7--------------------------------|
              Amaj7
e|-10-9-9-7-7---9h10----9-------------------------------------------------|
B|-------------------12---10--9h10----9-----------------------------------|
G|---------------------------------11---9---9-8-7---6h7p6---6-------------|
D|--------------------------------------------------------9---------------|
A|------------------------------------------------------------------------|
E|------------------------------------------------------------------------|
    Bm                                      Amaj7
e|--------------------7-6-7/10---10-9-9-7-7---9h10p9-------------------0-|
B|--------------7-6-7--------------------------------------------------2-|
G|--------7-6-7----------------------------------------6h7p6-----------1-|
D|--9p7-9--------------------------------------------------------------2-|
A|------------------------------------------------------------4h5p4--7/0-|
E|-----------------------------------------------------------------------|


Amaj7
Hoy hago el amor
               F#m
con otra persona
              Bm  Bm/A
pero el corazon
              E/G#  D/F#  E7
por siempre tuyo es

Amaj7
Mi cuerpo se da
         F#m
y el alma perdona
            Bm  Bm/A
tanta soledad
             E/G#  D/F# E7
va hacerme enloquecer


           A
Contare que es amor
     E/G#
jurare que es pasion
    G
y diré lo que siento

con todo cariño
      F#
y en ti pensare
  Bm
Dejare el corazon
  Bm6
seré todo emocion
      Bm7
La verdad es que miento

que vivo pensando
     E7
si te olvidaré

           A
Cuando al fin acabo
      E/G#
la ilusion que invente
       G
y se para la emocion

yo quisiera tambien
        F#
ver el tiempo correr
      Bm
Ya no se que mi amor
           Bm6
que habre dicho no se
        Bm7
que hace entonces que intento

sentir el amor
      E7
cuando acaba el placer


   A
Sigues dentro de mi pecho
                F#m
y vivo recordando
Bm
cuando pienso en ti
     D                    E7
yo siento que te estoy amando


    A
Y cuando llega el deseo
                        F#m
es tu nombre a quien llamo
Bm
Puede que no seas tu
D                       E
pero es a ti a quien amo

Solo:
  A                 F#m                    Bm              D
e|-------------------4h5-2--4h5-2--4h5-2-4-5/7-9h10-7-9h10-7---|
B|-3/5-3-2---3/5-3-2-------------------------------------------|
G|-------------------------------------------------------------|
D|-------------------------------------------------------------|
A|-------------------------------------------------------------|
E|-------------------------------------------------------------|
              E                E7
e|-9h10-7-9-10/12--10-9---------------------------------------------------|
B|----------------------9--7-9--------------------------------------------|
G|-----------------------------9--7-6-------------------------------------|
D|------------------------------------6--6-7-9-9/11=----------------------|
A|------------------------------------------------------------------------|
E|------------------------------------------------------------------------|


           A
Contare que es amor
     E/G#
jurare que es pasion
    G
y diré lo que siento

con todo cariño
      F#
y en ti pensare
  Bm
Dejare el corazon
  Bm6
seré todo emocion
      Bm7
La verdad es que miento

que vivo pensando
     E7
si te olvidaré

           A
Cuando al fin acabo
      E/G#
la ilusion que invente
       G
y se para la emocion

yo quisiera tambien
        F#
ver el tiempo correr
      Bm
Ya no se que mi amor
           Bm6
que habre dicho no se
        Bm7
que hace entonces que intento

sentir el amor
      E7
cuando acaba el placer


   A
Sigues dentro de mi pecho
                F#m
y vivo recordando
Bm
cuando pienso en ti
     D                    E
yo siento que te estoy amando


    A
Y cuando llega el deseo
                        F#m
es tu nombre a quien llamo
Bm
Puede que no seas tu
D                       E
pero es a ti a quien amo     [Bis]


Acordes


Amaj7            002120
F#m              244222
Bm               224432
Bm/A             004432
E/G#             400454 ó 422100
D/F#             200232
E7               022130
G                355433
F#               244322
Bm6              224332
Bm7              224232
D                000232
E                022100

            
            
Suggest correction
Creating personal tab
Creating personal tab
You can edit any tab online and save it as your Personal.

You can edit, replace or remove any tab part or add personal notes – all changes will be seen only by you.

Personal tabs can be accessed anytime from any device, even offline.
Learn more »
Give kudos to tab author, rate the tab!
1 2 3 4 5
comments
print report bad tab
guest
Wanna post a correction for this tab? Suggest correction