Oops, an error
Loading. Please wait.

Cápsula Tab

26 views 1 this week
no commentswrite comment
1 2 3 4 5
3 more votes to show rating
add to favorites
launch autoscroll
font size
0
reset
how to read this tab
guitar tuner
×
Best way to learn
"Cápsula"
Autoscroll
slow
fast
+/-
esc
set tempo
stop
NOTACION

h= hammer on
p= pull off
s= slide
>= mantener el sonido
*= tocar varias veces esa nota o acorde
PM= palm muted (si va seguido de una línea de puntos hacerlo
hasta donde termina la línea de puntos)

------------------------------------------------------------
------------------------------------------------------------

AFINACION

Dropped D: afina la sexta cuerda de tu guitarra dos semito-
nos menos (de E a D) y las cinco cuerdas restantes déjalas 
en afinación standar

------------------------------------------------------------
------------------------------------------------------------


-----
INTRO
-----


1)


---------------------------------
---------------------------------
--------------------------------- (x4)
---------------------------------
--6-5-3-0--0-3-5--0-3-5-6-5-3-0--
--6-5-3-0--0-3-5--0-3-5-6-5-3-0--
  PM...........................


2)


---------------------------------
---------------------------------
--------------------------------- (x4)
---------------------------------
--6-5-3-0--0-3-5--0-3-5-6-5-3-0--
--6-5-3-0--0-3-5--0-3-5-6-5-3-0--


3)


------------------
------------------
------------------
--0>--8>--5>--0>--
--0>--8>--5>--0>--
--0>--8>--5>--0>--


-------
VERSO 1
-------


1) (Él creyó adivinar...)


----------------------------------
----------------------------1-----
--------2-----2-------------------
--0--3-----3-----3-------3-----3--
----------------------1-----------
----------------------------------

-------------------------------------
-------------------------------------
-----------2-----2----------2-----2--
--------0-----0-------0--3-----3-----
-------------------------------------
--0--5-------------------------------

---------------------------------------
---------------------------1-----------
--------2-----2p0----------------------
--0--3-----3------------3-----3--------
---------------------1-----------1--0--
---------------------------------------

-------------------------------0-----------
-------------------------3--------3-----3--
--------2-----2-------2-----2--------2-----
-----0-----0-----0-------------------------
-------------------------------------------
--5----------------------------------------


2) (Sabes que no es así...)


Guitarra 1
----------

------------------
------------------
------------------ (x?)
------------------
--0---8---5---0---
--0*--8*--5*--0*--
  PM...........


Guitarra 2 [Con efectos]
----------

-------------------------
-------------------------
-------------------------
--6p5p3p0--0h3h5--0h3h5--
-------------------------
-------------------------


------
CHORUS (El cabal de la persona...)
------


--------------------
--------------------
--12---8---10---5--- (x2)
--10---6----8---3---
--10---6----8---3---
--10*--6*---8*--3*--


-----------
POST-CHORUS
-----------


1)


Tocar lo mismo que en Intro parte 2)


2)


---------------------------
---------------------------
--10--10--10--10-----------
---8---8---8---8-----------
---8---8---8---8----8s1s8--
---8---8---8---8----8s1s8--

-----------------------------
-----------------------------
--10--10--10--10-------------
---8---8---8---8-------------
---8---8---8---8----8s1s8s1--
---8---8---8---8-------------

-----------------------------------
-----------------------------------
--10--10--10--10-------------------
---8---8---8---8-------------------
---8---8---8---8-------------------
---8---8---8---8----0-3h5-6p5-3-0--

-------------------------
-------------------------
--10--10--10--10---------
---8---8---8---8---------
---8---8---8---8----6s0--
---8---8---8---8----6s0--


-------
VERSO 2
-------


1) (Intuyes tener...)


--------------------------------------------
---------------------------1----------------
-----2h3--2-----2---------------------------
--0----------3----------3-----3------3------
---------------------1-----------1>-----p0--
--------------------------------------------

---------------------------------------
--------------------------3------------
-----------------------2---------------
-----0--5h7--5h7----0--------3--2p0h2--
---------------------------------------
--5------------------------------------
                       PM..

--------------------------------------
---------------------------1----------
-----2h3--2-----2---------------------
--0----------3----------3-----3-------
---------------------1-----------1p0--
--------------------------------------

------------------------0-----5-----5--
---------------------3-----3-----3-----
-------------0-------------------------
-----0--5h7-----4----------------------
---------------------------------------
--5------------------------------------
             PM..


2) (Sabes que no es así...)


Tocar lo mismo que en Verso 1 parte 2)


-----
FINAL (Oh, Oh,...)
-----


---------------
---------------
--8---10---5>--
--6----8---3>--
--6----8---3>--
--6*---8*--3>--


------------------------------------------------------------
------------------------------------------------------------
Suggest correction
Give kudos to tab author, rate the tab!
1 2 3 4 5
comments
print report bad tab
guest
You may want to rate the tab now too:
select rating
Wanna post a correction for this tab? Suggest correction