Oops, an error
Loading. Please wait.

Despídete Tab

13 views 1 this week
no commentswrite comment
1 2 3 4 5
3 more votes to show rating
add to favorites
launch autoscroll
font size
0
reset
how to read this tab
guitar tuner
Autoscroll
slow
fast
+/-
esc
set tempo
stop
Help us to improve Ultimate-Guitar.com Take our survey!
×
NOTACION

h= hammer on
p= pull off
b= bend
s= slide
>= mantener el sonido
*= tocar varias veces esa nota o acorde
x= apagado de diapasón
AP= arrastre de púa (si va seguido de una línea de puntos
hacerlo hasta donde termina la línea de puntos)
PM= palm muted (si va seguido de una línea de puntos hacerlo
hasta donde termina la línea de puntos)

------------------------------------------------------------
------------------------------------------------------------

AFINACION

Dropped D: afina la sexta cuerda de tu guitarra dos semito-
nos menos (de E a D) y las cinco cuerdas restantes déjalas 
en afinación standar

------------------------------------------------------------
------------------------------------------------------------


-----
INTRO
-----


--------
--------
--------
--------
--------
--12s0--


1)


--------------------------------------------
--------------------------------------------
--------------------------------------------
--0--2--3----0--7--5----0--2--3----0--5--3--
--0--2--3----0--7--5----0--2--3----0--5--3--
--0--2--3----0--7--5----0--2--3----0--5--3--


-----------------------------------------
-----------------------------------------
-----------------------------------------
--0--2--3----0--7--5----0--2----3--5--3--
--0--2--3----0--7--5----0--2----3--5--3--
--0--2--3----0--7--5----0--2----3--5--3--
                                PM.....


--------------------------------------------
--------------------------------------------
--------------------------------------------  (x2)
--0--2--3----0--7--5----0--2--3----0--5--3--
--0--2--3----0--7--5----0--2--3----0--5--3--
--0--2--3----0--7--5----0--2--3----0--5--3--


2)


Guitarra 1
----------

----------------------------------
----------------------------------
----------------------------------  
--0>--0>--0>--0>--0>--0>--0>--0>--
--0>--0>--0>--0>--0>--0>--0>--0>--
--0>--0>--0>--0>--0>--0>--0>--0>--


Guitarra 2 [Con efectos]
----------

----------------------------------
----------------------------------
-------------2>-------------------
--3p2p0h2h3------3p2p0h2p0--------
----------------------------3h5>--
----------------------------------

----------------------------
----------------------------
-------------2>-------------
--3p2p0h2h3------3p2p0h2p0--
----------------------------
----------------------------


-----
VERSO
-----


1) (Las cosas que siempre soñastes hoy se rinden...)


--------------------------------------------
--------------------------------------------
--------------------------------------------  (x4)
--6--5--3--5----6--5--3----5--6----6--5--3--
--6--5--3--5----6--5--3----5--6----6--5--3--
--6--5--3--5----6--5--3----5--6----6--5--3--
  PM......................................


2) (Si, no cabe duda, el cielo abre sus puertas...)


--------------------------------------------
--------------------------------------------
--------------------------------------------  (x4)
--6--5--3--5----6--5--3----5--6----6--5--3--
--6--5--3--5----6--5--3----5--6----6--5--3--
--6--5--3--5----6--5--3----5--6----6--5--3--


------
CHORUS (Sentir odio, perderlo todo...)
------


-----------------------------------------------
-----------------------------------------------
--10--10--10-----------10--10--10--10--5>--7>-- (x2)
---8---8------8---------8---8---8---8--3>--5>--
---8---8---------8------8---8---8---8--3>--5>--
---8---8------------8---8---8---8---8--3>--5>--


--x--------
--x--------
--x--------
--x--------
--x--0--0--
--x--0--0--
     PM..

-----------------------------------------------
-----------------------------------------------
--10--10--10-----------10--10--10--10--5>--7>--
---8---8------8---------8---8---8---8--3>--5>--
---8---8---------8------8---8---8---8--3>--5>--
---8---8------------8---8---8---8---8--3>--5>--

------------
------------
--10>-------
---8>-------
---8>-------
---8>--3b>--


-----------
POST-CHORUS
-----------


1)


------------
--15>-------
-------14>--
------------
------------
------------

------------
--17h18p17--
------------ (x8)
------------
------------
------------


2)


Guitarra 1 [Con efectos]
----------

--------------------------
--------------------------
--------22s0--------22s0--
--22s0--------22s0--------
--------------------------
--------------------------
  AP....................


Guitarra 2
----------

------------
--17h18p17--
------------ (tocar varias veces muy rápido)
------------
------------
------------

-----------------------------x-----x--
-----------------------------x-----x--
-----------------------------x-----x--
--0--0--0--0--0--0--0--0--0--x--0--x--
--0--0--0--0--0--0--0--0--0--x--0--x--
--0--0--0--0--0--0--0--0--0--x--0--x--
  PM.......................     PM


-----
FINAL (Sentir odio, perderlo todo...)
-----


Guitarra 1 (x?)
----------

---------------
---------------
--10---5---7---
---8---3---5---
---8---3---5---
---8*--3*--5*--


Guitarra 2 [Sonido limpio] (x?)
----------

--8----------8--------------
-----11---------11------11--
---------10---------10------
----------------------------
----------------------------
----------------------------

--8----------8----------------
-----11---------11------8-----
---------10---------10--------
---------------------------0--
------------------------------
------------------------------


------------------------------------------------------------
------------------------------------------------------------
Suggest correction
Give kudos to tab author, rate the tab!
1 2 3 4 5
comments
print report bad tab
guest
You may want to rate the tab now too:
select rating
Wanna post a correction for this tab? Suggest correction