Oops, an error
Loading. Please wait.

Diez Años Tab

version 1
version 1

Whole song

Interactive

by Sober
138 views 1 this week
no commentswrite comment
1 2 3 4 5
3 more votes to show rating
add to favorites
launch autoscroll
font size
0
reset
how to read this tab
guitar tuner
Autoscroll
slow
fast
+/-
esc
set tempo
stop
NOTACION

h= hammer on
p= pull off
s= slide
>= mantener el sonido
#= zona de la cuerda cercana al puente de la guitarra
*= tocar varias veces esa nota o acorde
AP= arrastre de púa (si va seguido de una línea de puntos
hacerlo hasta donde termina la línea de puntos)
PM= palm muted (si va seguido de una línea de puntos hacerlo
hasta donde termina la línea de puntos)

------------------------------------------------------------
------------------------------------------------------------

AFINACION

Dropped D: afina la sexta cuerda de tu guitarra dos semito-
nos menos (de E a D) y las cinco cuerdas restantes déjalas 
en afinación standar

------------------------------------------------------------
------------------------------------------------------------


-----
INTRO
-----


1)


Guitarra 1
----------

------------------------------------
------------------------------------
------------------------------------
--------------------------0>--------
--------#s12--------#s12--0>--12s0--
--0s22--------0s22--------0>--------
  AP....................      AP..


Guitarra 2 (x2)
----------

-------------------------------------------------------------
-------------------------------------------------------------
---------9s10-----7s9-----9s10-----10s12-----12s13--13-13-13-
-------------------------------------------------------------
---------7s8------5s7-----7s8-------8s10-----10s11--11-11-11-
--0-0-0--------0-------0--------0---------0------------------
  PM...        PM      PM       PM        PM


2)


Tocar lo mismo que la Guitarra 2 en la parte 1) de la Intro


3)


Guitarra 1
----------

------
------
------
--0>--
--0>--
--0>--


Guitarra 2
----------

-----------------------------------
-----------------------------------
-----------------------------------
--0>-------2s3>--3h5>--5h6p5p3p0>--
------3h5--------------------------
-----------------------------------


Guitarra 3 [Con efectos]
----------

------------------------
--6-------------6>--8>--
--5--7---5--7---5>--7>--
-----7---5--7-----------
------------------------
------------------------


-----
VERSO (Vuelvo a sonreír...)
-----


--------------------------------------------------------
--------------------------------------------------------
--------------------------------------------------------
--12-12-12--10-10-10-----------------------------10h12--
----------------------12-12-12--10-10-10--12-12---------
--------------------------------------------------------
  PM...........................................

---------------------------------------------------
---------------------------------------------------
---------------------------------------------------
--12-12-12--10-10-10-------------------------------
----------------------12-12-12--10-10-10--8-8-8-8--
---------------------------------------------------
  PM.............................................

--------------------------------------------------------
--------------------------------------------------------
--------------------------------------------------------
--12-12-12--10-10-10------------------------------------
----------------------12-12-12--10-10-10--12-12---------
-------------------------------------------------10h12--
  PM...........................................

---------------------------------------------
---------------------------------------------
---------------------------------------------
--12-12-12--10-10-10-------------------------
----------------------12-12--10-10--8-8--10--
---------------------------------------------


------
CHORUS (Decir sí a ser libre...)
------


------------------------------------------------------
------------------------------------------------------
------10---10--------10---10----------10---5---7---5--
--0----8------8--0----8------8----0----8---3---5---3--
--0----8---------0----8--------8--0----8---3---5---3--
--0*---8*--------0*---8*----------0*---8*--3*--5*--3--

--------------------------------------------
--------------------------------------------
------10-------10-------10---5---7---5------
--0----8---0----8---0----8---3---5---3--0>--
--0----8---0----8---0----8---3---5---3--0>--
--0*---8*--0*---8*--0*---8*--3*--5*--3--0>--

--------------------------------
--------------------------------
--------------------------------
--0>-------2s3>--3-5>--5h6p5p3--
------3h5-----------------------
--------------------------------


-----------
POST-CHORUS
-----------


-------------------------------------------
-------------------------------------------
-----------------------------12s13--13-13-- (x2)
-------------------------------------------
--0--7h8--0--5h7--0--7h8--0--10s11--11-11--
--0-------0-------0-------0----------------
  PM      PM      PM      PM

---------------------------------------------
---------------------------------------------
-----9s10-----7s9-----9s10-----12s13--13-13-- (x2)
--0--------0-------0--------0----------------
--0--7s8---0--5s7--0--7s8---0--10s11--11-11--
--0--------0-------0--------0----------------


------------------------------------------------------------
------------------------------------------------------------
Suggest correction
Give kudos to tab author, rate the tab!
1 2 3 4 5
comments
print report bad tab
guest
You may want to rate the tab now too:
select rating
Wanna post a correction for this tab? Suggest correction