Oops, an error
Loading. Please wait.

Oscura Comunicación Tab

17 views 1 this week
no commentswrite comment
1 2 3 4 5
3 more votes to show rating
add to favorites
launch autoscroll
font size
0
reset
how to read this tab
guitar tuner
Autoscroll
slow
fast
+/-
esc
set tempo
stop
Help us to improve Ultimate-Guitar.com Take our survey!
×
NOTACION

h= hammer on
p= pull off
s= slide
>= mantener el sonido
x= apagado de diapasón
*= tocar varias veces esa nota o acorde
PM= palm muted (si va seguido de una línea de puntos hacerlo
hasta donde termina la línea de puntos)

------------------------------------------------------------
------------------------------------------------------------

AFINACION

Dropped D: afina la sexta cuerda de tu guitarra dos semito-
nos menos (de E a D) y las cinco cuerdas restantes déjalas
en afinación standar

------------------------------------------------------------
------------------------------------------------------------


-----
INTRO
-----


-----------------------------
-----------------------------
-------------------------11-- (x11)
--0h2--2p0h5h7p0h7h9--9---9--
--0h2--2p0h5h7p0h7h9--9---9--
--0h2--2p0h5h7p0h7h9--9---9--

---------------------------
---------------------------
------------------9--7>s0--
--0h2--2p0h5h7p0--7--5>s0--
--0h2--2p0h5h7p0--7--5>s0--
--0h2--2p0h5h7p0--7--5>s0--


-----
VERSO
-----


1) (Vuelves a escuchar mi voz, vuelves a perder...)


Guitarra 1 (x4)
----------

---------------------------------
---------------------------------
---------------------------------
--2--2--0--5--0--2--5------------
--2--2--0--5--0--2--5------------
--2--2--0--5--0--2--5--5--5h7s0--
  PM.................

---------------------------------
---------------------------------
---------------------------------
--2--2--0--5--0--2--5--7h9p7s0---
--2--2--0--5--0--2--5------------
--2--2--0--5--0--2--5------------
  PM.................


Guitarra 2 (x4)
----------

---------------------------------
---------------------------------
---------------------------------
--2--2--0--5--0--2--5--5--5h7s0--
--2--2--0--5--0--2--5--5--5h7s0--
--2--2--0--5--0--2--5--5--5h7s0--
  PM.................

--------------------------------
--------------------------------
--------------------------------
--2--2--0--5--0--2--5--7h9p7s0--
--2--2--0--5--0--2--5--7h9p7s0--
--2--2--0--5--0--2--5--7h9p7s0--
  PM.................


2) (No hay día que no sufras mi obsesión...)


Tocar lo mismo que en Intro


----------
PRE-CHORUS
----------


----------------------------------------------------
----------------------------------------------------
----------------------------------------------------
--7h9--9--7h9--9--7h9--x--x--7h9--9--7h9--9--7h9p0--
--7h9--9--7h9--9--7h9--x--x--7h9--9--7h9--9--7h9p0--
--7h9--9--7h9--9--7h9--x--x--7h9--9--7h9--9--7h9p0--

--------------------------------------------------
--------------------------------------------------
--------------6--6--6--6--------------7--7--7-----
--------------4--4--4--4--------------5--5--5-----
--4--4--4--4--------------5--5--5--5-----------0--
--4--4--4--4--------------5--5--5--5-----------0--


------
CHORUS (Piensa en mí, abrázate a mi despertar...) (x4)
------ 


------------------------------
------------------------------
------------------9--9--9-----
------------------7--7--7-----
--9>--7--7--7--7-----------0--
--9>--7--7--7--7-----------0--

--------------------------------------------------
--------------------------------------------------
--------------6--6--6--6--------------7--7--7-----
--------------4--4--4--4--------------5--5--5-----
--4--4--4--4--------------5--5--5--5-----------0--
--4--4--4--4--------------5--5--5--5-----------0--


-----------
POST-CHORUS
-----------


1)


----------------------------------------------
----------------------------------------------
---------------------------------------------- (x4)
----------------------------------------------
--9--7--0--9--7--0--9--7--0--9--7--0--10--10--
--9--7--0--9--7--0--9--7--0--9--7--0--10--10--
  PM................................


2)


--------------------------------------
--------------------------------------
-------11>-----11--10---------11------ (x4)
--0h9---9>--9----------11--9---9------
--0h9---9>-----------------9---9------
--0h9---9>-----------------9---9--9*--
                                  PM

-----
FINAL
-----


-------------------------
-------------------------
------------------------- (x3)
--7h9--9--7h9--9--7h9p0--
--7h9--9--7h9--9--7h9p0--
--7h9--9--7h9--9--7h9p0--

------------------------------
------------------------------
------------------------------
--7h9--9--7h9--9--7h9p7--9s0--
--7h9--9--7h9--9--7h9p7--9s0--
--7h9--9--7h9--9--7h9p7--9s0--


------------------------------------------------------------
------------------------------------------------------------
Suggest correction
Give kudos to tab author, rate the tab!
1 2 3 4 5
comments
print report bad tab
guest
You may want to rate the tab now too:
select rating
Wanna post a correction for this tab? Suggest correction