Oops, an error
Loading. Please wait.

No Volverás Tab

17 views 1 this week
no commentswrite comment
1 2 3 4 5
3 more votes to show rating
add to favorites
launch autoscroll
font size
0
reset
how to read this tab
guitar tuner
×
Best way to learn
"No Volverás"
Autoscroll
slow
fast
+/-
esc
set tempo
stop
     
Sobre Tierra
No volveras

Tab: Roberto Vasquez
La Unión, El Salvador
rvasquez64@


Esta es una excelente canción puramente Salvadoreña.


Intro

      C         G        Am         G         F         G         C         G

e|-----2---|-----3---|-----0---|-----3---|-----1---|-----3---|-----2---|-----3---|
B|------1--|------3--|------1--|------3--|------2--|------3--|------1--|------3--|
G|---0---0-|---0---0-|---2---2-|---0---0-|---1---3-|---0---0-|---0---0-|---0---0-|
D|--2-2---2|--0-0---0|--2-2---2|--0-0---0|--3-3---3|--0-0---0|--2-2---2|--0-0---0|
A|-3-------|---------|-0-------|---------|---------|---------|-3-------|---------|
E|---------|-3-------|---------|-3-------|-1-------|-3-------|---------|-3-------|


      C         G        Am         G         F         G         C         G

e|-----2---|-----3---|-----0---|-----3---|-----1---|-----3---|-----2---|----3----|
B|------1--|------3--|------1--|------3--|------2--|------3--|------1--|----3----|
G|---0---0-|---0---0-|---2---2-|---0---0-|---1---3-|---0---0-|---0---0-|----0----|
D|--2-2---2|--0-0---0|--2-2---2|--0-0---0|--3-3---3|--0-0---0|--2-2---2|----0----|
A|-3-------|---------|-0-------|---------|---------|---------|-3-------|---------|
E|---------|-3-------|---------|-3-------|-1-------|-3-------|---------|----3----|

Nota: el último G es un rasgeo suave hacia abajo.
          
Este es el Intro de la canción. Luego siguen las estrofas.


            C    G            Am G
El tiempo pasó,   el llanto ceso,  

               F                    G            C  G
y el viento llevo  aquellas hojas,   el árbol murió,

                C    G             Am          G 
tus cartas sin voz,   me dicen que no volverás,

                F               G            C    G
que aquellas palabras de amor,   no fueron verdad.


Coro.


        C G            Am         G
Hoy sin ti mi vida no puede seguir 
            F             G
mi sol ya dejo de alumbrar 

            C            G
la luna llorando aun esta

     C G           Am          G   
gritare al cielo rogando por ti 

             F  G 
en donde estarás 

              C    G
hoy quien te amara.


Estrofa II.


               C    G                      Am G
Hoy sufro por ti,   escribo canciones de amor, 

                 F   G               C  G
me faltan palabras,   me falta tu voz,

              C    G                     Am  G 
no puedo seguir,    viviendo en la soledad,

                        F     G                C    G
hoy temo tratar de olvidar,    que no volverás.


----   Aquí va el Primer Solo.   -----


Coro.


        C G            Am         G
Hoy sin ti mi vida no puede seguir 
            F             G
mi sol ya dejo de alumbrar 

            C            G
la luna llorando aun esta

     C G           Am          G   
gritare al cielo rogando por ti 

             F  G 
en donde estarás 

              C    G
hoy quien te amara.


-----    Aquí va el Segundo Solo    ----


Coro.


        C G            Am         G
Hoy sin ti mi vida no puede seguir 
            F             G
mi sol ya dejo de alumbrar 

            C            G
la luna llorando aun esta

     C G           Am          G   
gritare al cielo rogando por ti 

             F  G 
en donde estarás 

              C    G
hoy quien te amara. . .


        C G            Am         G
hoy sin ti mi vida no puede seguir 
            F             G
mi sol ya dejo de alumbrar 

            C            G
la luna llorando aun esta

     C G           Am          G   
gritare al cielo rogando por ti 

             F  G 
en donde estarás 

                    C       G
hoy    quien    te    amara.


Cualquier corrección enviar a mi correo.  Arriva el Rock Salvadoreño.
Esta canción va para mi muñequita.
*===================================================================*
Tab: Roberto Vasquez
La Unión, El Salvador
rvasquez64@
Suggest correction
Give kudos to tab author, rate the tab!
1 2 3 4 5
comments
print report bad tab
guest
You may want to rate the tab now too:
select rating
Wanna post a correction for this tab? Suggest correction