Oops, an error
Loading. Please wait.

Niña Soñadora Tab

11 views 1 this week
no commentswrite comment
1 2 3 4 5
3 more votes to show rating
add to favorites
launch autoscroll
font size
0
reset
how to read this tab
guitar tuner
×
Best way to learn
"Niña Soñadora"
Autoscroll
slow
fast
+/-
esc
set tempo
stop
E---15--15-15-15-15------17----14-14-14-14-14----------------
B---17--17-17-17-17------19----16-16-16-16-16----------------
G------------------------------------------------------------
D------------------------------------------------------------
A------------------------------------------------------------
E------------------------------------------------------------


E---13-13-13-13-13----10-10/11---11--11---11---13-11-------------------
B---15-15-15-15-15----11-11/12---12--12---12---------13-11------------
G----------------------------------------------------------13-----
D-----------------------------------------------------------------
A-----------------------------------------------------------------
E-----------------------------------------------------------------


E---3-3-3-3-3----5----2-2-2-2-2----0-0-0-0-0-----------
B---5-5-5-5-5----7----3-3-3-3-3----1-1-1-1-1-----------
G------------------------------------------------------
D------------------------------------------------------
A------------------------------------------------------
E------------------------------------------------------


E---------------0-6/8-6---------------------------------------------
B---0-------------------------8-6-----------------------------------
G-----2-0---------------------------8-6-----------------------------
D-------------------------------------------------------------------
A-------------------------------------------------------------------
E-------------------------------------------------------------------


Intro   G C D G C D

                    G
Hola como estas mi amor
                        C
Que linda te encuentro ahora
                   D
O será que me conquistas

Con mirarte a cada instante
                    G
Con mirarte a cada hora

                 G
Eres como una princesa
               C
Tu mi niña soñadora
                       D
Te encanta que te consienta

Te gusta que te enamore
                       G
También eso a mi me encanta

                         D
Pensando en ti ya estoy ido
                 C
Y todo el día suspiro
                        G
Ya no se ni que día es hoy
                    D
Por tu culpa he reprobado
                 C
Matemáticas, historia
                  G
Y la clase de español

                    D
Pero no me importa nada
                       C
Que mi mente este atrofiada
                     G
Por pensar en ti mi amor

                   G
Sigue siendo como eres
                      C
Sigue atrofiando mi mente
                      D
Que yo formaré por mientras

Lo que será para siempre
                    G
Nuestro nidito de amor


El mism0o rekint0o del principi0o?..


                 G
Eres como una princesa
               C
Tu mi niña soñadora
                     D
Te encanta que te consienta

Te gusta que te enamore
                       G
También eso a mi me encanta

                         D
Pensando en ti ya estoy ido
                 C
Y todo el día suspiro
                        G
Ya no se ni que día es hoy
                    D
Por tu culpa he reprobado
                C
Matemáticas, historia
                  G
Y la clase de español

                    D
Pero no me importa nada
                      C
Que mi mente este atrofiada
                      G
Por pensar en ti mi amor

                   G
Sigue siendo como eres
                      C
Sigue atrofiando mi mente
                       D
Que yo formaré por mientras

Lo que será para siempre
                    G
Nuestro nidito de amor


Rekinto0o   final?.


b0oeno esper0o i les aya gustad0o i pliss si se sabeN
 ro0las de ellos subanlas
para q
sigan apareciend0o estas ro0lasz zaz
Suggest correction
Give kudos to tab author, rate the tab!
1 2 3 4 5
comments
print report bad tab
guest
You may want to rate the tab now too:
select rating
Wanna post a correction for this tab? Suggest correction