Oops, an error
Loading. Please wait.

Nada Quedará Tab

version 1
version 1

Whole song

Interactive

83 views 1 this week
no commentswrite comment
1 2 3 4 5
3 more votes to show rating
add to favorites
launch autoscroll
font size
0
reset
how to read this tab
guitar tuner
Autoscroll
slow
fast
+/-
esc
set tempo
stop
Help us to improve Ultimate-Guitar.com Take our survey!
×
PUERDE KE HAYA ERRORES KE HAYAN ESCAPADO A MIS OIDOS O A MI ZCRITURA
PERO HE TRATADO DE GRAFICARLO LO MEJOR KE HE PODIDO PARA TODOS UDS

TITULO:        Nada Quedará
GRUPO O ARTISTA: La Sociedad (Chile)
TRANSCRITO POR:       Juan Pablo Condezo Diaz [jianqechcan@
FECHA:              Domingo, 08 de Julio del 2005
PROCEDENCIA:        ICA - Peru


                       ACORDES UTILIZADOS EN ESTA CORTA-VENAS
                      =======================================

                                                               __
  Em7         Bm      Bmadd11                                    
======/   x=====/   =====o/                                    |
 ||||||     ||||||     ||||||                                     |
 |o||||     |ooooo     |oooo|                                     |
 ||||o|     ||||o|     ||||o|                                     |
 ||||||     ||oo||     ||oo||                                     |
                                                                   
   G          Am         C          D                              /  DEL INTRO
======/   ======/   ======/   ======/                         |
 ||||||     ||||o|     ||||o|     ||||||                          |
 |o||||     ||oo||     ||o|||     |||o|o                          |
 o||||o     ||||||     |o||||     ||||o|                          |
 ||||||     ||||||     ||||||     ||||||                       __/

   Em         D         Am7        Bm7         C          B7
======/   ======/   ======/   x=====/   ======/   ======/
 ||||||     ||||||     ||||o|     ||||||     ||||o|     ||||||
 |oo|||     |||o|o     ||o|||     |ooooo     ||o|||     |ooooo  G         Bm7         C         C/B          Am7      G/F#
======/   x=====/   ======/   ======/   ======/   ======/
 ||||||     ||||||     ||||o|     ||||o|     ||||o|     ||||||
 |o||||     |ooooo     ||o|||     |o||||     ||o|||     o|||||  Dm         G         G/F#            Em
======/   ======/   ======/   ======/
 |||||o     ||||||     ||||||     ||||||
 |||o||     |o||||     o|||||     |oo||| A          Em         G          D          B7
======/   ======/   ======/   ======/   ======/
 ||||||     ||||||     ||||||     ||||||     ||||||
 ||ooo|     |oo|||     |o||||     |||o|o     |ooooo Em7                       Bm     Bmadd11
||-7-7775-5553-3332-2320-2-2222-00-2222--
||-0-000-0-000-0-000-0-000-0-3-3333-33-3333--
||-0-000-0-000-0-000-0-000-0-4-4444-44-4444--
||---------------------------4------44-4444--
||-------------------------------------------
||-------------------------------------------


   Em7                     Bm
-7-7775-5553-3332-2320-7-7777-10(10)7--|
-0-000-0-000-0-000-0-000-0-7-7777--7-(7)7--|
-0-000-0-000-0-000-0-000-0-7-7777--7-(7)7--|
---------------------------9-9999-------9--|
---------------------------9------------9--|
-------------------------------------------|


(Guitarra Electrica)

   G            Am                       C                       G          D        Em
------------10|--------------(10)--7-8-|8h10-10br-7h8~~-8-7----|------------------|--------|
---8v~~-8b^---|10b^~~r-10br8-----------|-------------------10-8|-10v~~--10p8p7~~-|--------|
--7-----------|-------------9----------|-----------------------|------------------|--/9----|
--------------|------------------------|-----------------------|------------------|--------|
--------------|------------------------|-----------------------|------------------|--------|
(0:16)--------|------------------------|-----------------------|------------------|(0:31)--|


Em                  D
 Tanto tiempo para terminar
Em                Bm7
  En una fría discusión
Am7                  Em
 Tu me acusas de poca expresión,
C        D           Em
 yo te acuso por llorar
              Bm7
      No hay más, no
      C             Am      B7
       el tiempo a veces mata


   G
Y nada quedará ni un fiel saludo
 Bm7                             C-C/B
nada quedará ni las ganas de hablar
 Am7-Am7/g     D
  a puerta cerrada
   G
Y nada quedará ni un fiel saludo
 Bm7                             C-C/B
nada quedará ni las ganas de hablar
 Am7-G     G/F#   D
  a puerta cerrada


INTERLUDE: (VIOLINES)

  Dm               Dm              Dm                      G      G-G/F#-Em
|----------------|----------------|----------------|----------------------|
|----------------|----------------|----------------|----------------------|
|-7/9----9-9-s10-|-7/9----9-9-s10-|-7/9----9-9-s10-|-7/9------------------|
|----------------|----------------|----------------|----------------------|
|----------------|----------------|----------------|----------------------|
|(1:41)----------|----------------|----------------|----------------------|
|
|----------------|--------------13|1312-1210-108|-87-7-8-10~~---------|
|----------------|----------------|----------------|--------------8--7--5-|
|----------------|----------------|----------------|----------------------|
|----------------|----------------|----------------|----------------------|
|----------------|----------------|----------------|----------------------|
|----------------|--------------(1:48)-------------|----------------------|


Em                         D
  Se hace grande hoy mi habitación
Em                   Bm7
  vuelvo solo a caminar
Am7                Em
  tu me odias por conocer
  C      D            Em
que lo nuestro se acabó
              Bm7
      No hay más, no
      C           Am    B7
       yo que en ti pensaba


   G
Y nada quedará ni un fiel saludo
 Bm7                             C-C/B
nada quedará ni las ganas de hablar
 Am7-Am7/g     D  G
  a puerta cerrada
   G
Y nada quedará ni un fiel saludo
 Bm7                             C-C/B
nada quedará ni las ganas de hablar
 Am7-Am7/g     D
  a puerta cerrada

INTERLUDE: (SOLO: Guitarra Electrica)

 A                            Em
-----(9)---------12---------|------------------------|
----/12b^wah-12b^--r12-10-12s14p12p10-12v~~~------8h|
-/11------------------------|-------------------7-9--|
----------------------------|----------------7-9-----|
----------------------------|------------------------|
(3:02)----------------------|------------------------|

 G                          D
----10b^/15-17--17b^r-17-15|14br------------14-15|
10b^-------17--17----------|---15-------15-17----|
---------------------------|-----14v~~----------|
---------------------------|---------------------|
---------------------------|---------------------|
(3:09)---------------------|---------------------|

 A                    Em
-17-17b^rv~~-15h17-14|15v~-14h15--------------|
---------------------|----------15------------|
---------------------|-----------14-14h16v~--|
---------------------|------------------------|
---------------------|------------------------|
(3:17)---------------|------------------------|

  G                       D         B7
---------10-------------|------------------|
-8/10-10b^-r10-8h10p8v~~|-7---------10b^~~-|
------------------------|---9-7-9-7--------|
------------------------|------------------|
------------------------|------------------|
(3:24)------------------|------------------|


   G
Y nada quedará ni un fiel saludo
 Bm7                             C-C/B
nada quedará ni las ganas de hablar
 Am7-Am7/g     D
  a puerta cerrada
   G
Y nada quedará ni un fiel saludo
 Bm7                             C-C/B
nada quedará ni las ganas de hablar
 Am7-Am7/g     D            Em
  a puerta cerrada, no no nooo oooh

OUTRO: (Violines)

 Em               Em               Em               Em
|----------------|----------------|----------------|----------------|
|----------10-12-|----------10-12-|----------10-12-|----------10-12-|
|-9/11--12-------|-9/11--12-------|-9/11--12-------|-9/11--12-------| (x2)
|----------------|----------------|----------------|----------------|
|----------------|----------------|----------------|----------------|
|----------------|----------------|----------------|----------------|     fade Out (4:31)


BUENO ESTA CANCIONES MOSTRA PARA TODOS LOS TEMPLADOS
UN SALUDO PA MIS PATAS DE HUANCAVELICA KE NO C KE HICIERON ESAS FIESTAS PATRIAS
AKA LA TIENEN COMPLETITA PUES VI KE NO LA HABIAN HECHO POR BASTANTE TIEMPO
DISFRUTENLA

P. D. SI TIENE PROBLEMAS CON ESO DE LA AFINACION ME AVISAN A MI CORREO
PONGO LOS ACORDES PARA KE LOS PUEDAS MEMORIZAR PERO SI YA TIENES TIEMPO TOCANDO 
NO TENDRAS PROBLEMA
AH ESO SI HAY MIL MANERAS DE NOMBRAR A AUN SOLO ACORDE ASI KE PUEDE KE HAYA ERRORES


                                                                       __
                                                                      )  (
                                                                   º-|¤  ¤|-º
                                                                   º-|¤  ¤|-º
                                                                      __/
                                                                      |__|
                                                                      |__|
                                                                      |__|
_  _  _  _  _  _  _  _ _  _  _  _  _  _  _             |__|
                                                                      |__|
_____   _____   _____    _____                    |__|
     _       _      _   _            _        _                 |__|
      _       _     _    _            _        _                |__|
       _       ____     _            _        _               |__|
        _       _           _            _       _         __    |__|
         _       _           _            _      _        /     |__|
  _____       _           _____    ____            __|__|    _
                                                                |     |__|__/ 
  _  _  _  _  _  _  _   _  _  _  _  _  _  _  _   |     ....     /
                                                                     ||||    |
                                                                 /    ....     
                                                                /     ||||  ?   
                                                               |      ....  | o  |
                                                               |     [====]/   o |
                                                                 JiaN        . /
                                                                 _____________/
Suggest correction
Give kudos to tab author, rate the tab!
1 2 3 4 5
comments
print report bad tab
guest
You may want to rate the tab now too:
select rating
Wanna post a correction for this tab? Suggest correction