Oops, an error
Loading. Please wait.

Ángel Eléctrico Tab

version 5
version 5

Interactive

308 views 1 this week
no commentswrite comment
1 2 3 4 5
2 more votes to show rating
add to favorites
launch autoscroll
font size
0
reset
how to read this tab
guitar tuner
Autoscroll
slow
fast
+/-
esc
set tempo
stop
Help us to improve Ultimate-Guitar.com Take our survey!
×
Soda Stereo - Ángel Eléctrico (Version Comfort y Musica Para Volar)

Por Rodrigo (Drowdrigo_Orange0722@
*Corregi el Intro
*Dos Pequeños Detalles En El Solo

Intro:

e-----3--------5--------2--------8-7----
B---4---4----6---6----3---3----8-----8--
G-3--------5--------2--------7----------
D--------------------------------------- *3
A---------------------------------------
E---------------------------------------

e-----3--------5--------3--------2-----
B---4---4----6---6----4---4----3---3---
G-3--------5--------3--------2---------
D--------------------------------------
A--------------------------------------
E--------------------------------------

e------------------------
B------------------------
G----/7v-/--------------
D------------------------
A------------------------
E------------------------

e----------------------------------------------------------------------
B--------8vv-8--------8vv--------8v-6-8b9r8v-6-8b9r8-6-8vv-6-8b9r8-6-8-
G--5h7-5---------5h7-5------5h7-5--------------------------------------
D----------------------------------------------------------------------
A----------------------------------------------------------------------
E----------------------------------------------------------------------

e----------------------------------------------------8------8-------------
B--------8vv---8-------8vv----------8v-6-8b9r8p6-8b10---8b10---10r8-6-----
G--5h7-5---------5h7-5-----7-5h7-5------------------------------------7vv-
D-------------------------------------------------------------------------
A-------------------------------------------------------------------------
E-------------------------------------------------------------------------

Verso 1
Dm          Em
Ahí va la tempestad
F                 G
Ya parece un paisaje habitual
Dm               Em
Un árbol color sodio
                G
La caída de un ángel eléctrico


e---------------------------------------------------8--------8------------
B--------8vv-8--8-------8vv--------8v-6-8b9r8p6-8b10--8-8b10---8b10-8-6-6-
G--5h7-5----------5h7-5------5h7-5----------------------------------------
D-------------------------------------------------------------------------
A-------------------------------------------------------------------------
E-------------------------------------------------------------------------


Verso 2
Dm          Em
No tengo estática
F                   G
Y no querría lastimarte de nuevo
Dm                Em
Volví solo y cansado
F                     G
Por la caída de otro ángel eléctrico


Solo:
e-------------------------------------------------------------------------
B---------------------------------------------------------------------15v-
G------9h10-9-10-9-------------9-10-12v------14-13-12v------14-13-12------
D-12---------------10------/12------------12-------------12---------------
A-12------------------12v-------------------------------------------------
E-10----------------------------------------------------------------------

e-------13-15b17r15-13----------------------------------------------
B-13-15----------------15b17--13-15-------9h10p9----9----------------
G----------------------------------14v---------10----10p9----9------
D---------------------------------------------------------10---10-9-
A-------------------------------------------------------------------
E-------------------------------------------------------------------

e----------------------------------------------13----
B-------------------------------------------13----13-
G-------------10h12-12b14r12-10----10-12b14----------
D-------10h12-------------------12-------------------
A-10h12----------------------------------------------
E----------------------------------------------------

e-----------------------------
B-----13----13----13----------
G-r12----12----12----10-12-10-
D-----------------------------
A-----------------------------
E-----------------------------

Verso 3
Dm           Em
Enredado en cables
F                    G
Estoy al filo de la resignación
Dm            Em
Debe ser el hábito
F                       G
De esperar que algo quiebre el unísono

Verso 4
LAm       D
Un nuevo acorde
           LAm           D
Te hace mirarme a los ojos
LAm            D
Aun tengo al sol
         LAm    D
Para besar tu sombra

Verso 5
G     F
Hoy caí
     G        F
Al dejarte sola
G      F
Ya pagué
         G
Por quebrar la calma

e----------------------------------------------------------------
B-----------------8-------8-------8-6-8b9r8-6-8b9r8-6-8--6-8b9r8-
G-7vv-------5h7-5---5h7-5---5h7-5--------------------------------
D----------------------------------------------------------------
A----------------------------------------------------------------
E------/---------------------------------------------------------

e---------------------------------------------------8--------8------------
B--------8vv-8--8-------8vv--------8v-6-8b9r8p6-8b10--8-8b10---8b10-8-6-6-
G--5h7-5----------5h7-5------5h7-5----------------------------------------
D-------------------------------------------------------------------------
A-------------------------------------------------------------------------
E-------------------------------------------------------------------------

Espero Poder Subir la Version Original
De el disco "Comfort y Musica Para Volar"
Suggest correction
Give kudos to tab author, rate the tab!
1 2 3 4 5
comments
print report bad tab
guest
You may want to rate the tab now too:
select rating
Wanna post a correction for this tab? Suggest correction