Oops, an error
Loading. Please wait.

Ángel Eléctrico Tab

version 6
version 6

Interactive

65 views 1 this week
2 commentsread comments
1 2 3 4 5
2 more votes to show rating
add to favorites
launch autoscroll
font size
0
reset
how to read this tab
guitar tuner
Autoscroll
slow
fast
+/-
esc
set tempo
stop
Help us to improve Ultimate-Guitar.com Take our survey!
×
Intro:

e|-------2---------5---------4---------8-7---|
B|-2/3-3---3-3/6-6---6-6/5-5---5-5/8-8-----8-| x3

e|-------2---------5---4444-3333-|
B|-2/3-3---3-3/6-6---6-5555-4444-|   D

G|-5/7v-|

e|----------------------------------------------------------|
B|-------8v-8/-------8v-------8v-6-8b-6-8-6-8b-6-8-6-8b-6-8-|
G|-5h7-5-------5h7-5----5h7-5-------------------------------|

e|-------------------------------------------------8-------8------|
B|-------8b-------8b-8/-------8v-6-8h9-8-6-8-6-8h9---6-8h9---8----|
G|-5h7-5----5h7-5-------5h7-5----------------------------------7v-|

Dm          Em
  Ahí va la tempestad
F                 Em
 Ya parece un paisaje habitual
Dm               Em
  Un árbol color sodio
F                Em
 La caída de un ángel eléctrico

e|------------------------------------------------8--------------------|
B|-------8v-8/-------8v-------8v-6-8b-8-6-8-6-8h9---6-8h9-8-6-8h9-8-6v-|
G|-5h7-5-------5h7-5----5h7-5------------------------------------------|

Dm          Em
  No tengo estática
F                   Em
 Y no querría lastimarte de nuevo
Dm              Em
  Volví solo y cansado
F                     Em             Dm
 Por la caída de otro ángel eléctrico

e|----------------------------------------------10----10-13-15b-|
B|------------------------------10-9----10-9-------10-----------|
G|-9h10-9-10-9----------9-10-12------12------12-----------------|
D|-------------10----12-----------------------------------------|
A|----------------12--------------------------------------------|
E|--------------------------------------------------------------|

e|-13-12----13-9h10-------------------------------------|
B|-------10---------10v-10/-8h10-8----8-----------------|
G|---------------------------------10---10-9----9-------|
D|-------------------------------------------10---10----|
A|---------------------------------------------------12-|
E|------------------------------------------------------|

e|------------------------------------------13v------------------------|
B|-------------------------------------------------13---13-------------|
G|-------------10-12-14b-12-10----10-12b-14-----14---12----12-10-12-10-|
D|-------10-12-----------------12--------------------------------------|
A|-10-12---------------------------------------------------------------|
E|---------------------------------------------------------------------|

Dm           Em
  Enredado en cables
F                    Em
 Estoy al filo de la resignación
Dm            Em
  Debe ser el hábito
F                       Em
 De esperar que algo quiebre el unísono

B-77-9-5-55-5-55-333b-
G-77-9-5-55-4-44-333b- x4
D-77-9-5-55-X-XX-XXX--

Am         D
  Un nuevo acorde
          Am           D    B|-7b-|
Te hace mirarme a los ojos
Am             D
  Aun tengo al sol
        Am    D
Para besar tu sombra

G     F
Hoy caí
     G        F
Al dejarte sola
G      F
Ya pagué
         G
Por quebrar la calma

e|---------------------------------------------------------------|
B|------------8v-8/-------8v-------8v-6-8b-6-8-6-8b-6-8-6-8b-6-8-|
G|-7v---5h7-5-------5h7-5----5h7-5-------------------------------|

e|-------------------------------------8-------8-----8------|
B|-------8b-------8b-8/-------8v-6-8h9---6-8h9---8h9---8----|
G|-5h7-5----5h7-5-------5h7-5----------------------------7v-|
Suggest correction
Give kudos to tab author, rate the tab!
1 2 3 4 5
comments
print report bad tab
2 comments total.
0 reply
Enrique_Blanc 229 Apr 26, 2015 09:11 PM

Lack of formatting. Put in the full set of strings, don't be lazy. Can't sight read this, and with all the other tabs of this song, this is just lazy.

0 reply
Enrique_Blanc 229 Apr 26, 2015 09:11 PM

Lack of formatting. Put in the full set of strings, don't be lazy. Can't sight read this, and with all the other tabs of this song, this is just lazy.

guest
You may want to rate the tab now too:
select rating
Wanna post a correction for this tab? Suggest correction