Oops, an error
Loading. Please wait.

Canción Animal Chords

version 3
version 3

Whole song

Interactive

84 views 3 this week
no commentswrite comment
1 2 3 4 5
2 more votes to show rating
add to favorites
launch autoscroll
font size
0
reset
transpose
0
reset
simplify chords
display chords
guitar tuner
×
Best way to learn
"Canción Animal"
Autoscroll
slow
fast
+/-
esc
set tempo
stop
RIFF PRINCIPAL CON ACOMPAÑAMIENTO DEL BAJO:
e---------------------------------|---
B-----------------------------3---|.--
G---------------------------0-----|---
D-------------------------2-------|---
A----------2------------3---------|.--
E----0--0-----3--0----0-----------|---

RIFF
Hipnotismo de un flagelo
dulce tan dulce
Cuero, piel y metal
carmín y charol

G             A   G
Cuando el cuerpo no espera
             D/F#
lo que llaman amor

RIFF
Cada lágrima de hambre
el más puro néctar
Nada más dulce
que el deseo en cadenas

G             A    G
Cuando el cuerpo no espera
             D/F#
lo que llaman amor

D      Am7       C
Más se pide y se vive
    Am     Em       Am     Em
canción animal, canción animal

G------------------------------------
D------3-----------------------------
A----2---3--(232)--------------------
E------------------3--0--------------

RIFF
No me sirven las palabras
gemir es mejor

G             A    G
Cuando el cuerpo no espera
             D/F#
lo que llaman amor

D      Am7       C
Más se pide y se vive
    Am     Em       Am     Em
canción animal, canción animal
G------------------------------------
D------3-----------------------------
A----2---3--(232)--------------------
E------------------3--0--------------


D      Am7       C
Más se pide y se vive (Más, Más)
D      Am7       C
Más se pide y se vive
    Am     Em       Am     Em
canción animal, canción animal
G------------------------------------
D------3-----------------------------
A----2---3--(232)--------------------
E------------------3--0--------------

G             A    G
uuuuuuuuuhuuuuuuuuuhuuuu
             D/F#
uuuhuuuuuuuuuuuuuu

  G  A  D/FA#
e--0----2----0-----
B--3----2----3-----
G--0----2----2-----
D--0----2----0-----
A--2----x----0-----
E--3----x----2-----


Los demas acordes son los normales
(): ligados
Suggest correction
Give kudos to tab author, rate the tab!
1 2 3 4 5
comments
print report bad tab
guest
You may want to rate the tab now too:
select rating
Wanna post a correction for this tab? Suggest correction