Oops, an error
Loading. Please wait.

Corazón Delator Tab

version 2
version 2

Whole song

Interactive

296 views 6 this week
no commentswrite comment
1 2 3 4 5
3 more votes to show rating
add to favorites
launch autoscroll
font size
0
reset
how to read this tab
guitar tuner
Autoscroll
slow
fast
+/-
esc
set tempo
stop
Help us to improve Ultimate-Guitar.com Take our survey!
×
A ver, parto por poner el intro correcto y los arreglos que van
bajo otros acordes.


Intro:

e---12-------------12------------12-----------------------|
B--------10/12----------10/12----------10/14-14/12-12/17--|
G---------------------------------------------------------|

después continúa con lo que sigue y se repite varias veces:

*1
e--15-14-10--7-8-7-----15-14-10--7-8-7------
B--17-13-12------------17-13-12-------------
G-------------------------------------------


*2
e--3-----3-----3-----3-5------3-----3-----3-5/7-|
B-----5-----5-----5--------5-----5-----5--------|
G-----------------------------------------------|

*3 riff

e--------------------------
B--------------------------
G--4---4--3-0--------------
D--------------4-----------

Para los acordes del coro:

D/C: x-3-0-2-3-2
A  : 5-7-7-6-5-5
G  : 3-5-5-4-3-3
Em : x-7-9-9-8-7
C  : 8-10-10-9-8-8
Bm : 7-9-9-7-7-7
Bb : 6-8-8-7-6-6
F  : x-8-7-5-6-5

Para cuando está por terminar la cancion cuando dice "como un
mantra, de mis labios" va lo que sigue:

SOLO

e---12----12----12----12----14-12------12-|
B------12----12----12----12--------12-----|
G-----------------------------------------|


e--------------------------------------|
B--------------------------------------|
G--12/9--9-9--12-12------9-12-9-----9-|
D---------------------12----------12---|


e-------12---------10-----------12---------12-15/17)----17---17-----17)-|
B-10-12-----10-12-------10-12-------10-12------------15---15--15/17-----|
G-----------------------------------------------------------------------|

Para terminar con A G y un armónico en la 1era cuerda, 5o espacio.

* ) significa Bend, o estirar la cuerda.

Intro
*1 *2
*1
Un señuelo
hay algo oculto en cada sensación
*2
ella parece sospechar parece descubrir en mi
debilidad
los vestigios de una hoguera
F#   F  Em
oh mi corazón se vuelve delator
F#  F  *3 riff
traicionándome
*1
Por descuido
fui víctima de todo alguna vez
*2
ella lo puede percibir ya nada puede impedir en mi
fragilidad
es el curso de las cosas
F#   F  Em
oh mi corazón se vuelve delator
F#   F
se abren mis esposas...
D/C  A  G
Em            C   Em              C
un suave látigo una premonición
Bm         Bb        F          D   C
dibujan llagas en las manos
Em                C  Em
un dulce palpito

LA clave intima
se van cayendo de mis labios
(mantra)

Intro otra vez mas *1

Un señuelo
hay algo oculto en cada sensación
ella parece sospechar parece descubrir en mi
que aquel amor
es como un océano de fuego
oh mi corazón se vuelve delator
la fiebre volverá de nuevo

un suave látigo
una premonición
dibujan llagas en las manos
un dulce palpito
LA clave intima
se van cayendo de mis labios...
como un mantra
de mis labios
de mis labios
--------------------------------------------------
--------------------------------------------------
El que sabe sabe...

No apto para los que no saben llevar el ritmo.
Suggest correction
Give kudos to tab author, rate the tab!
1 2 3 4 5
comments
print report bad tab
guest
You may want to rate the tab now too:
select rating
Wanna post a correction for this tab? Suggest correction