Oops, an error
Loading. Please wait.

De Música Ligera Tab

version 6
165 views 1 this week
no commentswrite comment
1 2 3 4 5
2 more votes to show rating
add to favorites
launch autoscroll
font size
0
reset
how to read this tab
guitar tuner
Autoscroll
slow
fast
+/-
esc
set tempo
stop
Help us to improve Ultimate-Guitar.com Take our survey!
×
Aca les dejo los punteos de "De Musica Ligera"  estan igualitos


Solo 1:
e-----------------------------------------------
B-----------------------------------------------
G-----------------------------------------------
D---------0------0------------------------------
A-2--2--4------4---4-2-0---2--0-----------------
E------------------------2-------2-0-2-0--------

e-----------------------------------------------||
B-----------------------------------------------||
G---------------------------------2-------------||
D---------0--2--4--2--0-------------0--2/4--4/7-||
A-2--2--4---------------4--2----0---------------||
E-----------------------------------------------||

Solo 2:

e--7--5--7--5--7--5/2--2-0-2-(5.2.0)-2--5/7-7-
B----------------------------------------------
G----------------------------------------------
D----------------------------------------------
A----------------------------------------------
E----------------------------------------------

e-----12-10-9-10-12-10-9-7-9-7-5-
B--------------------------------
G--------------------------------
D--------------------------------
A--------------------------------
E--------------------------------


e---0-(5.7.5)--0-(5.7.5)--0-(7.9.7)-0-(7.9.7)-0-
B---------------------------------------------------
G---------------------------------------------------
D---------------------------------------------------
A---------------------------------------------------
E---------------------------------------------------


e---14--12--14--12-14-15-14-12--12-14-15-14-12-10-9-10-12-10-9----
B-----------------------------------------------------------------
G-----------------------------------------------------------------
D-----------------------------------------------------------------
A-----------------------------------------------------------------
E-----------------------------------------------------------------

e---2-(5.2.0)-2----5-(7.5.0)-5---2-(5.2.0)--2-----
B----------------------------------------------------
G----------------------------------------------------
D----------------------------------------------------
A----------------------------------------------------
E----------------------------------------------------

e--5.7.5--7.9.7--9.11.9--10.12.10--14--||
B--------------------------------------||
G--------------------------------------||
D--------------------------------------||
A--------------------------------------||
E--------------------------------------||


referencias:

/: slide
.: Ligado
Suggest correction
Give kudos to tab author, rate the tab!
1 2 3 4 5
comments
print report bad tab
guest
You may want to rate the tab now too:
select rating
Wanna post a correction for this tab? Suggest correction