Oops, an error
Loading. Please wait.

De Música Ligera Bass Tab

version 3
version 3
409 views 3 this week
no commentswrite comment
1 2 3 4 5
1 last vote to show rating
add to favorites
launch autoscroll
font size
0
reset
guitar tuner
Autoscroll
slow
fast
+/-
esc
set tempo
stop
Help us to improve Ultimate-Guitar.com Take our survey!
×
pz ahi les va la version chida con todo y arreglos q suenan de lujo
espero les guste

intro(0:05)
G-14h16--14------------------
D------------12-----11-12h11-
A----------------12---------
E----------------------------

(X3)
G-------------------------------------
D-------------------------------------
A--2--2---------------5--5------------
E--------3-3-3-3-----------5-5-5-5-5--

G-------------------------------------
D----------------5----4-----2---------
A--2--2------------------5----4--2--0-
E-------3-3-3-------------------------

verso(0:23)
G------------------------------------
D------------------------------------
A--2---2--------------5---5----------
E--------3-3-3-3------------5-5-5-5--
                                       (X3)
G------------------------------------
D--------------------0-----0h2-------
A--2---2----------------4-----4--2--0
E--------3-3-3-3---------------------

G-------------------------------------
D-------------------------------------
A--2--2---------------5--5------------
E--------3-3-3-3-----------5-5-5-5-5--

G-------------------------------------
D----------------5----4-----2---------
A--2--2------------------5----4--2--0-
E-------3-3-3-------------------------

coro(0:54)
(x3)
G-------------------------------------
D-------------------------------------
A--2--2------------5--5---------------
E-------3-3-3-3---------5-5-5-5-5-----

G-----------14h16--14------------------
D----------------------12-----11-12h11-
A--2--2--------------------12----------
E-------3-3----------------------------

1er solo de guitarra(1:09)
(x3)
G-------------------------------------
D-------------------------------------
A--2--2---------------5--5------------
E--------3-3-3-3-----------5-5-5-5-5--

G-------------------------------------
D----------------5----4-----2---------
A--2--2------------------5----4--2--0-
E-------3-3-3-------------------------

verso(1:25)
G-------------------------------------
D---------------5---------------------
A--2--2--------------5--5-------------
E--------3-3-3-------------5-5-5-5----

G-------------------------------------
D--------------5----------------------
A--2--2------------5---5-5-7-7-4------
E--------3-3-3------------------------

G-------------------------------------
D-------------------------------------
A--2--2---------------5--5------------
E--------3-3-3-3-----------5-5-5-5-5--

G-------------------------------------
D----------------5----4-----2---------
A--2--2------------------5----4--2--0-
E-------3-3-3-------------------------

coro(1:40)
(x3)
G-------------------------------------
D-------------------------------------
A--2--2------------5--5---------------
E-------3-3-3-3---------5-5-5-5-5-----

G-----------14h16--14------------------
D----------------------12-----11-12h11-
A--2--2--------------------12----------
E-------3-3----------------------------

2do solo de guitarra(1:56)
G-------------------------------------
D-------------------------------------
A--2--2-0-----------5--5--------------
E---------3-3-3----------5-5-5-5-5----

G-------------------------------------
D----------------5------4-------------
A--2--2-0-------------------5----7----
E----------3--------------------------

G-------------------------------------
D---------------5---------------------
A--2--2--------------5--5-------------
E--------3-3-3-------------5-5-5-5----

G-------------------------------------
D--------------5----------------------
A--2--2------------5---5-5-7-7-4------
E--------3-3-3------------------------

G-------------------------------------
D-------------------------------------
A--2--2---------------5--5------------
E--------3-3-3-3-----------5-5-5-5-5--

G-------------------------------------
D----------------5----4-----2---------
A--2--2------------------5----4--2--0-
E-------3-3-3-------------------------

coro(2:27)
(x3)
G-------------------------------------
D-------------------------------------
A--2--2------------5--5---------------
E-------3-3-3-3---------5-5-5-5-5-----

G-----------14h16--14------------------
D----------------------12-----11-12h11-
A--2--2--------------------12----------
E-------3-3----------------------------

interludio(2:42)
G---------------------------------------
D-----------------5----4--------2-------
A---2---0------------------5---------4--
E------------3--------------------------

G---------------------------------------
D----------------5-----4----------------
A---2---0------------------5----4-------
E-----------3-------------------------5-

outro(2:52)
(x4)
G-------------------------------------
D-------------------------------------
A--2--2------------5--5---------------
E-------3-3-3-3---------5-5-5-5-5-----

G------------------------
D------------------------
A--------------5---------
E-------3----------------

ps ahora si aprendanse este clasico del rock
saludos al mau al mono al chubaca al chuchoman
arriba infrarrojo yeah!!!!!!!!!!!!!!!!
Te AMoOoO miChEllLeEe!!!!!!!!!
Suggest correction
Give kudos to tab author, rate the tab!
1 2 3 4 5
comments
print report bad tab
guest
You may want to rate the tab now too:
select rating
Wanna post a correction for this tab? Suggest correction