Oops, an error
Loading. Please wait.

Entre Caníbales (Unplugged) Tab

1,225 views 12 this week
1 commentread comment
1 2 3 4 5
x 5
add to favorites
launch autoscroll
font size
0
reset
how to read this tab
guitar tuner
×
Best way to learn
"Entre Caníbales (unplugged)"
Autoscroll
slow
fast
+/-
esc
set tempo
stop
INTRO
e|-------------------|
B|-------------------|
G|-------------------|
D|---2---------------| Riff 1 x4
A|-----0-2-3-5-------|
E|-------------0-3-5-|

(C  D) x4

     Em      C  D  Am7
Una eternidad
    Em  C       D      Am7
esperé  este instante
        Em    C  D   Am7
y no lo dejaré
     Em C      D          Am7
deslizar en recuerdos quietos

     C7
         ni en balas rasantes que matan.
e|---0---0------------------------------0-|
B|---1---3------------------------------5-|
G|---3---5------------------------------7-|
D|---2---4------------------------------6-|
A|---3---5------------------------------7-|
E|---0---0------------------------------0-|


Coro:

Am G  D       Am     Em    G     D  Am7
Ah....come de mi come de mi carne.
Em C D Am7         Em      G D Dsus4 D Am7
Ah........entre caníbales.
Em C/G D         Am7          Em  C/G  D  Am7
Ah.....tómate el tiempo en desmenuzarme
Em C/G D Am7         (C   D)x4
Ah..........entre caníbales.


        Em     C/G  D  Am7
Entre caníbales
     Em  C/G      D     Am7
el dolor    es veneno, nena
        Em      C/G   D   Am7
y no lo sentirás
         Em  C/G             D       Am7
hasta el fin    mientras te muevas lento,
  C7
lento y jadees el nombre que mataaa.
e|-0-----0----------------------------0-|
B|-1-----3----------------------------5-|
G|-3-----5----------------------------7-|
D|-2-----4----------------------------6-|
A|-3-----5----------------------------7-|
E|-0-----0----------------------------0-|

Coro:

Am G  D       Am7     Em    G     D  Am7
Ah....come de mi come de mi carne.
Em C D Am         Em      G D Dsus4 D Am7
Ah........entre caníbales.
Em C/G D         Am7          Em  C/G  D  Am7
Ah.....tómate el tiempo en desmenuzarme
Em C/G D Am7         (C   D)x4
Ah..........entre caníbales.

e|-------------------------------|
B|-----8-------------------------|
G|-7h9---9-7---------------------|
D|-----------9-7-9-7-5---5-------|
A|---------------------7---7-5---|
E|-----------------------------7-|

Riff 1

B|-----------------------------------------7-8-7-5-------------|
G|-4---------4-2-4---------4-2-4-------4-2---------4-2-4h5-5-4-|
D|---2-4-2-2-------2-4-2-2-------2-4-2-------------------------|

(Em-022003- Am7 D Am7) x8

Em C/G D Am7 Em     C/G D Am7
Ah           come de mí
Em C/G D Am7 Em     C/G D Am7
Ah           come de mí
Em C/G D Am7 Em C/G D Am7  Em   C/G D Am7
Ah                     una eternidad
  Em  C/G  D        Am7  Em
esperé este instante
Suggest correction
comments
print report bad tab
1 comment total.
0 reply
eliakerman1 10 Sep 21, 2016 10:20 PM

Gran Canción

guest
You may want to rate the tab now too:
select rating
Wanna post a correction for this tab? Suggest correction