Oops, an error
Loading. Please wait.

Génesis Bass Tab

version 2
version 2

Whole song

172 views 1 this week
no commentswrite comment
1 2 3 4 5
3 more votes to show rating
add to favorites
launch autoscroll
font size
0
reset
guitar tuner
Autoscroll
slow
fast
+/-
esc
set tempo
stop
Help us to improve Ultimate-Guitar.com Take our survey!
×
 Em
G -7-7-------------------------
D 5-5-55----------55-----------
A ---------------5--7--5-------
E -------0-0--5h7--------7-5-00

 (se repite mientras este en) Em
G -----------------------------
D ---------55------------------
A---------5--7--5-------------
E ------5h7--------7-5-00------

 Em               C        B7
G ------------------------------
D-----55------------------------
A----5--7--5--------------------
E -5h7--------7-5-88888888777777/

(vuelta a Em) repite un par de veces y luego
vuelve al primer riff (segundo verso) cuando
la guirarra toca los acordes Em (en vez del
slide riff) ahi va esta tan bien, hay mucha
improvisacion en Em despues..
G --------------------------
D--------------------------
A----77-5------------------
E -00-------765-3-----------

 Espero que les ayude, se que tampoco es perfecta
pero los main riffs estan ahi, luego esta improvisado
en la mayor parte =)
Suggest correction
Give kudos to tab author, rate the tab!
1 2 3 4 5
comments
print report bad tab
guest
You may want to rate the tab now too:
select rating
Wanna post a correction for this tab? Suggest correction