Oops, an error
Loading. Please wait.

Imágenes Retro Tab

version 1
version 1

Whole song

Interactive

181 views 1 this week
no commentswrite comment
1 2 3 4 5
2 more votes to show rating
add to favorites
launch autoscroll
font size
0
reset
how to read this tab
guitar tuner
×
Best way to learn
"Imágenes Retro"
Autoscroll
slow
fast
+/-
esc
set tempo
stop
DE AHORA EN ADELANTE MIS TABLATURAS VAN PARA ALGUIEN MUY MUY HERMOSA
INTELIGENTE CARIÑOSA MEJOR DICHO...
A LOS QUE QUIERAN DARME LAS GRACIAS POR SUBIR ESTAS TABLATURAS NO ME DEN
LAS GRACIAS A MI,SINO A ELLA
a la hermosa "Katherin Gonzalez"
gracias bonita por tu cariño
si lees esto, recuerda: que siempre me tendras a tu lado incondicionalmente
un beso nena


DISFRUTENLA...


I N T R O     O      C O R O   I

     (Am)             (Em)           (Am)             (Em)

e-|------12--10--8--|--------------|-----12--10--8--|---------------|
B-|--10--10--10--10-|-12-12---12sl-|-10--10--10--10-|-12-12----12sl-|
G-|---9-------------|--9--9-9--9sl-|--9-------------|--9--9--9--9sl-|
D-|-----------------|--------------|----------------|---------------|
A-|-----------------|--------------|----------------|---------------|
E-|-----------------|--------------|----------------|---------------|


     (Am)            (Em)           (G)
e-|-----12--10--8--|--------------|----------|----------------------|
B-|-10--10--10--10-|-12-12---12sl-|-12-12-12-|------------13----12/-|
G-|--9-------------|--9--9-9--9sl-|-12-12-12-|----------12------12/-|
D-|----------------|--------------|-12-12-12-|-12(12)/14-----14-----|
A-|----------------|--------------|----------|----------------------|
E-|----------------|--------------|----------|----------------------|

Las notas en entre paréntesis las toca otra gtr pero con algo de delay


    Am              E               G               Dm

e-|-5-5---(5)-(5)-|-4-4---(4)-(4)-|-7-7---(7)-(7)-|-5-5---(5)-(5)-|
B-|-5-5---(5)-(5)-|-5-5---(5)-(5)-|-8-8---(8)-(8)-|-6-6---(6)-(6)-|
G-|-5-5---(5)-(5)-|-4-4---(4)-(4)-|-7-7---(7)-(7)-|-7-7---(7)-(7)-|
D-|-7-----(7)-----|-2-----(2)-----|-5-----(5)-----|-7-----(7)-----|
A-|---------------|---------------|---------------|---------------|
E-|---------------|---------------|---------------|---------------|


    Am               E                G                (F)
e-|-5-5----(5)-(5)-|-4-4----(4)-(4)-|-7-7----(7)-(7)-|--5-7-8-7--|
B-|-5-5----(5)-(5)-|-5-5----(5)-(5)-|-8-8----(8)-(8)-|--6-6-6-6--|
G-|-5-5----(5)-(5)-|-4-4----(4)-(4)-|-7-7----(7)-(7)-|--5-5-5-5--|
D-|-7------(7)-----|-2------(2)-----|-5------(5)-----|-----------|
A-|----------------|----------------|----------------|-----------|
E-|----------------|----------------|----------------|-----------|


    Am               G                F                G/E
e-|-1-1--------1-1-|-3-3------------|-1-1-----1-1----|-3-3-------|
B-|-1-1--------1-1-|-3-3------------|-1-2-----1-1----|-3-3-------|
G-|-2-2--------2-2-|-4-4------------|-2-2-----2-2----|-4-4-------|
D-|-3----------3---|-5--------------|-3-------3------|-5---------|
A-|----------------|----------------|----------------|-----------|
E-|----------------|----------------|----------------|-----------|


    F                G             (D)               (C)
e-|-1-1--------1-1-|-3-3----------|-----------------|----------------|
B-|-1-1--------1-1-|-3-3----------|-----8-----8-----|-8-----8--------|
G-|-2-2--------2-2-|-4-4----------|-7-7---7-7---7-7-|---5-----5---5/-|
D-|-3----------3---|-5------------|-----------------|-----7-----7----|
A-|----------------|--------------|-----------------|----------------|
E-|----------------|--------------|-----------------|----------------|


P U E N T E

     (Am)             (Em)           (Am)             (Em)

e-|-------12--10--8--|--------------|-----12--10--8--|---------------|
B-|--/10--10--10--10-|-12-12---12sl-|-10--10--10--10-|-12-12----12sl-|
G-|--/-9-------------|--9--9-9--9sl-|--9-------------|--9--9--9--9sl-|
D-|------------------|--------------|----------------|---------------|
A-|------------------|--------------|----------------|---------------|
E-|------------------|--------------|----------------|---------------|


     (Am)            (Em)           (G)
e-|-----12--10--8--|--------------|----------|----------------------|
B-|-10--10--10--10-|-12-12---12sl-|-12-12-12-|------------13----12/-|
G-|--9-------------|--9--9-9--9sl-|-12-12-12-|----------12------12/-|
D-|----------------|--------------|-12-12-12-|-12(12)/14-----14-----|
A-|----------------|--------------|----------|----------------------|
E-|----------------|--------------|----------|----------------------|


VERSO II

Am                  E               G                  Dm

e-|-5-5---(5)-(5)-|-4-4---(4)-(4)-|-7-7--10-(10)-(10)|-5-5---(5)-(5)-|
B-|-5-5---(5)-(5)-|-5-5---(5)-(5)-|-8-8--12-(12)-(12)|-6-6---(6)-(6)-|
G-|-5-5---(5)-(5)-|-4-4---(4)-(4)-|-7-7--12-(12)-(12)|-7-7---(7)-(7)-|
D-|-7-----(7)-----|-2-----(2)-----|-5----------------|-7-----(7)-----|
A-|---------------|---------------|------------------|---------------|
E-|---------------|---------------|------------------|---------------|


Am                  E               G                  F

e-|-5-5---(5)-(5)-|-4-4---(4)-(4)-|-7-7--10-(10)-(10)|-5-5---(5)-(5)-|
B-|-5-5---(5)-(5)-|-5-5---(5)-(5)-|-8-8--12-(12)-(12)|-6-6---(6)-(6)-|
G-|-5-5---(5)-(5)-|-4-4---(4)-(4)-|-7-7--12-(12)-(12)|-7-7---(7)-(7)-|
D-|-7-----(7)-----|-2-----(2)-----|-5----------------|-7-----(7)-----|
A-|---------------|---------------|------------------|---------------|
E-|---------------|---------------|------------------|---------------|


C O R O

    F                G                F                G/E
e-|-1-1--------1-1-|-3-3------------|-1-1-----1-1----|-3-3-------|
B-|-1-1--------1-1-|-3-3------------|-1-2-----1-1----|-3-3-------|
G-|-2-2--------2-2-|-4-4------------|-2-2-----2-2----|-4-4-------|
D-|-3----------3---|-5--------------|-3-------3------|-5---------|
A-|----------------|----------------|----------------|-----------|
E-|----------------|----------------|----------------|-----------|


    F                G             (D)               (C)
e-|-1-1--------1-1-|-3-3----------|-----------------|----------------|
B-|-1-1--------1-1-|-3-3----------|-----8-----8-----|-8-----8--------|
G-|-2-2--------2-2-|-4-4----------|-7-7---7-7---7-7-|---5-----5---5/-|
D-|-3----------3---|-5------------|-----------------|-----7-----7----|
A-|----------------|--------------|-----------------|----------------|
E-|----------------|--------------|-----------------|----------------|


I N T E R L U D I O


    G            A             F           Em7
e-|------7-----|------9------|-----5------|-------7------|
B-|--------8---|--------10---|-------6----|---------8----|
G-|-0--------7-|-----------9-|---------5--|-----------7--|
D-|------------|-7-----------|-3----------|-7------------|
A-|------------|-------------|------------|--------------|
E-|------------|-------------|------------|--------------|


    Am                   Dm
e-|-5-5-------5-5------|-5-5-5------|
B-|-5-5-------5-5------|-5-5-6------|
G-|-5-5--x-x--5-5--x-x-|-5-5-7--x-x-|
D-|-7-7--x-x--7-7--x-x-|-7-7-7--x-x-|
A-|-7----x-x--7----x-x-|--------x-x-|
E-|--------------------|------------|x2


    G            A             E            Em7
e-|------7-----|------9------|-----5------|-------7------|
B-|--------8---|--------10---|-------6----|---------8----|
G-|-5--------7-|-----------9-|---------5--|-----------7--|
D-|------------|-7-----------|-3----------|-7------------|
A-|------------|-------------|------------|--------------|
E-|------------|-------------|------------|--------------|


C O R O III


  (F)              (G)            (F)            (Em)
|-----12--10--8--|--------------|----12--10--8--|--------------------|
|-10--10--10--10-|-12-12---12sl-|-10-10--10--10-|-12-12----12h13*-12-|
|-10-------------|-12-12*--12sl-|-10------------|-12-12-12-12----12--|
|----------------|--------------|---------------|--------------------|
|----------------|--------------|---------------|--------------------|
|----------------|--------------|---------------|--------------------|


  (F)             (G)             (D)               (C)
e-|----12-10-8---|---------------|-----------------|----------------|
B-|-10-10-10-10--|-12-12----12sl-|-----8-----8-----|-8-----8--------|
G-|-10-----------|-12-12-12-12sl-|-7-7---7-7---7-7-|---5-----5---5/-|
D-|--------------|---------------|-----------------|-----7-----7----|
A-|--------------|---------------|-----------------|----------------|
E-|--------------|---------------|-----------------|----------------|


  (F)              (G)
|-----12--10--8--|---------------|
|-10--10--10--10-|-12-12----12sl-|
|-10-------------|-12-12-12-12sl-|
|----------------|---------------|
|----------------|---------------|
|----------------|---------------|(BIS)

  (D)              (C)
|-----------------|----------------|
|-----8-----8-----|-8-----8--------|
|-7-7---7-7---7-7-|---5-----5---5/-|
|-----------------|-----7-----7----|
|-----------------|----------------|
|-----------------|----------------|(BIS)


  (D)                           (C)
|-----------------------------|--------------------------------|
|-------8------8--------------|--8-------8------8--------------|
|--7--7---7--7--7--7----------|----5-------5------5------------|
|-----------------------------|------7-------7-----------------|
|-----------------------------|--------------------------------|
|-----------------------------|--------------------------------|(BIS)


CHAO UN BESO PARA JOHISS
Suggest correction
Give kudos to tab author, rate the tab!
1 2 3 4 5
comments
print report bad tab
guest
You may want to rate the tab now too:
select rating
Wanna post a correction for this tab? Suggest correction