Oops, an error
Loading. Please wait.

Imágenes Retro Bass Tab

version 1
version 1

Whole song

Interactive

262 views 3 this week
no commentswrite comment
1 2 3 4 5
2 more votes to show rating
add to favorites
launch autoscroll
font size
0
reset
guitar tuner
×
Best way to learn
"Imágenes Retro"
Autoscroll
slow
fast
+/-
esc
set tempo
stop
3-------------3--------
4---3-5--3-5----0-0-0--    (x3)

3----------------------
4--3-3-3---3-3-3-1-3---


RIFF 1

1----------------------5-/7 (golpeando cuerda)
2--------------------------
3-------------3------------
4---3-5--3-5----0-0-0------ 

3-------------3--------
4---3-5--3-5----0-0-0--    (x2)

3----------------------
4--3-3-3---3-3-3-1-3---

nota: 3)----- Se toca sobre la cuerda 3
      4)----- Se toca sobre cuerda 4

A                  E    G                   D
  Debo tomar el antidoto para romper con la rigidez
A                 E      G               4)-3-1- 3)-5--3--2  
  Vivo como un sonambulo, buscando pliegues en la pared oh...

                                         _
 F          G            F         E    |
  Telarañas... sueño con telarañas...   | 
 F          G                  D--C    

 G            A           F           E     
  Mis ojos perciben otra vez imagenes retro
 G           A             F                 E
  Asi es la trama de este film, tu propio reflejo... 
 
 3)-----------------3-5-  
 4)-----5--3-5--3-5-----  (x 4)
  reflejooooooohh!!

 G            A           F           E     
  Mis ojos perciben otra vez imagenes retro
 G        A            F                E
  Reproduciendose sin fin, dejandome inmovil entre...

   (x2)

   oohooooooo! ohhhhhh!
2--3-2-0-------------
3--------3-----------   (x3)
4----------3--3--3-3-


    D --- C  (x8)


    

Esta es mi primera transcripcion... espero la disfruten.
Saludos desde monterrey, mexico.
2 de abril de 2002
Suggest correction
Give kudos to tab author, rate the tab!
1 2 3 4 5
comments
print report bad tab
guest
You may want to rate the tab now too:
select rating
Wanna post a correction for this tab? Suggest correction