Oops, an error
Loading. Please wait.

Juego De Seducción Chords

version 2
version 2

Whole song

Interactive

325 views 3 this week
no commentswrite comment
1 2 3 4 5
2 more votes to show rating
add to favorites
×
Save as Personal and add changes to this tab that will be seen only by you. Learn more ›
×
You can save this tab as Personal to edit and correct it or add notes. All changes will be seen only by you. Learn more »
save as personal
new!
launch autoscroll
font size
0
reset
transpose
0
reset
simplify chords
display chords
guitar tuner
backing track
0:00
0:00
Autoscroll
slow
fast
+/-
esc
set tempo
stop
Strumming
There is no strumming pattern for this song yet. and get +5 IQ
INTRO: Bsus4 - RIFF(x2)

|--------------------------------------------------------|
|--------------------------------------------------------|
|--------------------------------------------------------|
|---------------12---------------------12----------------|
|-------12-10------10-12--------12--10----10-12----------|
|12--11------------------12--11--------------------------|

|--------------------------------------------------------|
|--------------------------------------------------------|
|--------------------------------------------------------|
|---------------12---------------------------------------|
|-------12--10-----10--12--10--------------------12------|
|12--11----------------------------14--11--12--11--------|

B                  F# 
   VOY A SER TU MAYORDOMO
   A                 E
Y VOS HARAS EL ROL DE SEÑORA BIEN
B                     F# 
   O PUEDO SER TU VIOLADOR
       A            D    C#m        B
LA IMAGINACION ESTA NOCHE TODO LO PUEDE

E A

    G   B E           A
TE LLEVARE HASTA EL EXTREMO
  G   B  E   A
TE LLEVARE EH EH EH
G   B        E            A      G
ABRAZAME, ESTE ES EL JUEGO DE SEDUCCION


ESTAMOS SOLOS EN LA SELVA
NADIE PUEDE VENIR A RESCATARNOS
ESTOY MURIENDOME DE SED
Y ES TU PROPIA PIEL
LA QUE ME HACE SENTIR ESTE INFIERNO

TE LLEVARE..

RIFF (x2)

TE LLEVARE..

B                    F#m
   ESTOY MURIENDOME DE SED
             A
Y ES TU PROPIA PIEL
       D        C#m
LA QUE ME HACE MOVER
       D        C#m
ME HACE MOVER
  D        C#m        F#
ME HACE MOVER EN EXTREMO
Suggest correction
Give kudos to tab author, rate the tab!
1 2 3 4 5
comments
print report bad tab
guest
Wanna post a correction for this tab? Suggest correction