Oops, an error
Loading. Please wait.

Juego De Seducción Tab

version 4
version 4

Whole song

Interactive

41 views 1 this week
no commentswrite comment
1 2 3 4 5
3 more votes to show rating
add to favorites
launch autoscroll
font size
0
reset
how to read this tab
guitar tuner
Autoscroll
slow
fast
+/-
esc
set tempo
stop
Help us to improve Ultimate-Guitar.com Take our survey!
×
REFERENCIAS:
V=VIBRATO
/=SLIDE

  Ac5           Gc3
E--5------    E--3------
B--5------    B--3------
G--5--6---    G--3--4---
D--5--7---    D--3--5---
A--5--7---    A--3--5---
E--5------    E--3------


INTRO: B F#m Ac5 E

E-12-11------------12-11------------12-11------------12-14-11-12-11--
B------12-10--10-12-----12-10--10-12-----12-10--10-12--------------12
G-----------13---------------13---------------13---------------------
D--------------------------------------------------------------------
A--------------------------------------------------------------------
E--------------------------------------------------------------------

-12-11------------12-11-------------E
------12-10--10-12-----12-10--10-12-B
-----------13---------------13------G
------------------------------------D
------------------------------------A
------------------------------------E

B                F#m
Voy a ser tu mayordomo
       Ac5              E
y vos haras el rol de señora bien
B                  F#m
o puedo ser tu violador
       Ac5          D     C#m       B E Ac5
la imaginacion esta noche todo lo puede

     Gc3 B E           Ac5
Te llevare hasta el extremo
     Gc3 B E    Ac5
te llevare eh eh eh
  Gc3  B
abrazame
E            Ac5    Gc3
este es el juego de seduccion


Estamos solos en la selva           ****************************
nadie puede venir a rescatarnos     ESTA ESTROFA SE TOCA IGUAL *
estoy muriendome de sed             QUE LA PRIMERA             *
y es tu propia piel                                            *
la que me hace sentir este infierno ****************************


     Gc3 B E           Ac5
Te llevare hasta el extremo
     Gc3 B E    Ac5
te llevare eh eh eh
  Gc3  B
abrazame
E            Ac5    Gc3
este es el juego de seduccion

E-7-5----------------
B----7-5-------------
G-------7-5----------
D----------7-5-------
A-------------7-5----
E----------------7-5V


E-12-11------------12-11-------------12-11------------12-14-11-12-11--
B------12-10--10-12-----12-10--10-12V-----12-10--10-12--------------12
G-----------11---------------11----------------11---------------------
D---------------------------------------------------------------------
A---------------------------------------------------------------------
E---------------------------------------------------------------------

-12-11------------12-11-------------12-11----------------------------------
------12-10--10-12-----12-10--10-12V-----12-10--10-12-12/14-14/16-16/18-18-
-----------11---------------11----------------11---------------------------
---------------------------------------------------------------------------
---------------------------------------------------------------------------
---------------------------------------------------------------------------

-12-11------------12-11-------------12-11---------------14V-12-11----------
------12-10--10-12-----12-10--10-12V-----12-10--10-12-10---------12-10--10-
-----------11---------------11----------------11----------------------11---
---------------------------------------------------------------------------
---------------------------------------------------------------------------
---------------------------------------------------------------------------

---12-11------------12V-11V-------E
-12-----12-10--10-12-------12V----B
-------------11---------------11V-G
----------------------------------D
----------------------------------A
----------------------------------E

oh oh    oh                  oh oh oh
E---------------------------------------------
B---2-------2---------2----------2--------2---
G--4-------4---------3----------4--------4----
D-5-------5---------4----------5--------5-----
A---------------------------------------------
E---------------------------------------------

     Gc3 B E           Ac5
Te llevare hasta el extremo
     Gc3 B E    Ac5
te llevare eh eh eh
     Gc3 B E Ac5
te llevare
  Gc3  B
abrazame
E            Ac5    Gc3
este es el juego de seduccion

B                    F#m
Estoy muriendome de sed
         Ac5               D        C#m
y es tu propia piel la que me hace mover
D        C#m
me hace mover
D        C#m
me hace mover
       F#
en extremo

FINAL:

E----------------0--------------0-----------0------------0
B---2----2---2-------2-2----2------2----2-------2-----2--2
G--4----3---4--4---4---3---4--4---4-4--3--3---3---3--4---4
D-5----4---5-----------4--5-----------4-------------5----5
A----------------------0----------------------------------
E----------------------3----------------------------------

PARA CUALQUIER PREGUNT MANDENMEN UN MENSAJE A SEBA-STRIKE@
Y SE LO CONTESTARE CHAU!
Suggest correction
Give kudos to tab author, rate the tab!
1 2 3 4 5
comments
print report bad tab
guest
You may want to rate the tab now too:
select rating
Wanna post a correction for this tab? Suggest correction