Oops, an error
Loading. Please wait.

Lo Que Sangra La Cúpula Tab

version 1
version 1

Whole song

Interactive

453 views 3 this week
no commentswrite comment
1 2 3 4 5
2 more votes to show rating
add to favorites
×
Save as Personal and add changes to this tab that will be seen only by you. Learn more ›
×
You can save this tab as Personal to edit and correct it or add notes. All changes will be seen only by you. Learn more »
save as personal
new!
launch autoscroll
font size
0
reset
how to read this tab
guitar tuner
backing track
0:00
0:00
Autoscroll
slow
fast
+/-
esc
set tempo
stop
Intro: [Dm Dm9 Am7][Am G A]

e-5-5-5-8-4-4-4-8-5-5-5-8-4-4-5-
B-6-6-6-6-6-6-6-6-6-6-6-6-6-6-6-
G-7-7-7-7-7-7-7-7-7-7-7-7-7-7-7-
D-------------------------------
A-------------------------------
E-------------------------------

  Am  G A Am  G A                       X 2
e-0b0-----0b0-----
B-1-------1-------
G-2-------2-------
D-2-------2-------
A-0-------0-------
E-----3-5-----3-5-

Versos:

e-5-5-5-8-4-4-4-8-5-5-5-8-4-4-5-
B-6-6-6-6-6-6-6-6-6-6-6-6-6-6-6-
G-7-7-7-7-7-7-7-7-7-7-7-7-7-7-7-
D-------------------------------
A-------------------------------
E-------------------------------
 Yo Conozco ese lugar donde revientan

  Am  G A Am G A
e-0b0-----0b0-----
B-1-------1-------
G-2-------2-------
D-2-------2-------
A-0-------0-------
E-----3-5-----3-5-
  Las estrellas

e-5-5-5-8-4-4-4-8-5-5-5-8-4-4-5-
B-6-6-6-6-6-6-6-6-6-6-6-6-6-6-6-
G-7-7-7-7-7-7-7-7-7-7-7-7-7-7-7-
D-------------------------------
A-------------------------------
E-------------------------------
  Yo conozco la escalera en espiral

  Am  G A Am  G A
e-0b0-----0b0-----
B-1-------1-------
G-2-------2-------
D-2-------2-------
A-0-------0-------
E-----3-5-----3-5-
Hacia la cupula

  Bb  C        G7 A7
e---------    e-3-0-
B---------    B-3-2-
G-3-3-5-5-    G-4-0-
D-3---5--- X2 D-3-2-
A-1---3---    A-5-0-
E---------    E-3---
Los rayos x...   Los Oscuros...

  Dm A7 C  G     Dm A7 F  G
e-5--3--3--3-----5--3--1--3-/
B-6--5--3--3-----6--5--1--3-/
G-7--6--5--4-----7--6--2--4-/
D---------------------------/
A---------------------------/
E---------------------------/
 Te rescatare    Te rescatare.


Pre Coro:

  Bb  C  Am G A   Bb  C    A7       G7
e---------0----------------0-0-----------1-------1-------1---/
B---------1----------------2--2-------0----0-0-0---0-0-0--0--/
G-3-3-5-5-2-------3-3-5-5--0---0-----0-0----0-0-----0-0----0-/
D-3---5---2-------3---5----2----0---0-----------0-------0----/
A-1---3---0-------1---3----0---------------------------------/
E-----------3-5----------------------------------------------/
Los guardianes...Mientras...Hay tanto fraude a nuestro alrededor.

(Quiebre de bateria)

Coro:

  D    C9   F/ G  C B
e-2-2--3-0----3-3-----/
B-3-2--3-3----3-3-----/
G-2-2--0-0----0-0-----/
D-0-0--2-2------------/  X 2
A------3-3--------3-2-/
E-----------1---------/
 Es amor lo que sangra..

Versos:

Guitarra 1:

e-5-5-5-8-4-4-4-8-5-5-5-8-4-4-5-
B-6-6-6-6-6-6-6-6-6-6-6-6-6-6-6-
G-7-7-7-7-7-7-7-7-7-7-7-7-7-7-7-
D-------------------------------
A-------------------------------
E-------------------------------
 Yo Conozco ese lugar donde todos

 Am   G A Am  G A
e-0b0-----0b0-----
B-1-------1-------
G-2-------2-------
D-2-------2-------
A-0-------0-------
E-----3-5-----3-5-
 Se la creen

Guitarra 2:

e------------------------------
B------------------------------
G-7b9-9r7p5-7--7b9--5----------
D---------------------7--------
A------------------------------
E------------------------------

Guitarra1:

e-5-5-5-8-4-4-4-8-5-5-5-8-4-4-5-
B-6-6-6-6-6-6-6-6-6-6-6-6-6-6-6-
G-7-7-7-7-7-7-7-7-7-7-7-7-7-7-7-
D-------------------------------
A-------------------------------
E-------------------------------
  Yo conozco la salida de emergencia

  Am  G A Am  G A
e-0b0-----0b0-----
B-1-------1-------
G-2-------2-------
D-2-------2-------
A-0-------0-------
E-----3-5-----3-5-
Que nos salvara

Guitarra 2:

e-------------------------8---------------------
B-------------------8s10----10v~----------------
G-----------------------------------------------
D-----------------------------------------------
A-----------------------------------------------
E-----------------------------------------------

Guitarra 1:

  Bb  C        G7 A7
e---------    e-3-0-
B---------    B-3-2-
G-3-3-5-5-    G-4-0-
D-3---5--- X2 D-3-2-
A-1---3---    A-5-0-
E---------    E-3---
Cruje tu...   Si se que esperas...

  Dm A7 C  G     Dm A7 F  G
e-5--3--3--3-----5--3--1--3-/
B-6--5--3--3-----6--5--1--3-/
G-7--6--5--4-----7--6--2--4-/
D---------------------------/
A---------------------------/
E---------------------------/

Guitarra 2:

e--------------------------10------------------------------------/
B-15b17~r15p13-15v~-----------13-10------------------------------/
G-----------------------------------12-10-------------12--10-----/
D-----------------------------------------12-10--------------12~-/
A-----------------------------------------------12-10------------/
E----------------------------------------------------------------/


Pre Coro:
Guitarra 1:

  Bb  C  Am G A   Bb  C    A7       G7
e---------0----------------0-0-----------1-------1-------1---/
B---------1----------------2--2-------0----0-0-0---0-0-0--0--/
G-3-3-5-5-2-------3-3-5-5--0---0-----0-0----0-0-----0-0----0-/
D-3---5---2-------3---5----2----0---0-----------0-------0----/
A-1---3---0-------1---3----0---------------------------------/
E-----------3-5----------------------------------------------/
Los guardianes...Mientras...Hay tanta gamma a nuestro alrededor.

Guitarra 2:

e----------------------------------
B----------------------------------
G----------------------------------
D--------s19--15~s----------------
A----------------------------------
E----------------------------------

e---------10------------------------------/
B------------13-10------------------------/
G-12b14~-----------12-10----12----10------/
D------------------------12----12----12~--/
A-----------------------------------------/
E-----------------------------------------/

Coro:
  D    C9   F/ G  C B
e-2-2--3-3----3-3-----/
B-3-2--3-3----3-3-----/
G-2-2--0-0----0-0-----/
D-0-0--2-2------------/  X 2
A------3-3--------3-2-/
E-----------1---------/
 Es amor lo que sangra..

Solo:

Guitarra1:

e-5-5-5-8-4-4-4-8-5-5-5-8-4-4-5-
B-6-6-6-6-6-6-6-6-6-6-6-6-6-6-6-
G-7-7-7-7-7-7-7-7-7-7-7-7-7-7-7-
D-------------------------------
A-------------------------------
E-------------------------------

  Am  G A Am  G A
e-0b0-----0b0-----
B-1-------1-------
G-2-------2-------
D-2-------2-------
A-0-------0-------
E-----3-5-----3-5-

e-5-5-5-8-4-4-4-8-5-5-5-8-4-4-5-
B-6-6-6-6-6-6-6-6-6-6-6-6-6-6-6-
G-7-7-7-7-7-7-7-7-7-7-7-7-7-7-7-
D-------------------------------
A-------------------------------
E-------------------------------

  Am  G A Am  G A
e-0b0-----0b0-----
B-1-------1-------
G-2-------2-------
D-2-------2-------
A-0-------0-------
E-----3-5-----3-5-

Guitarra 2:

e:I-------------------------------------------------
B:I-------------------------------------------------
G:I-9~r7---*-2p0-------*-------5-7--7b9~r7p5--7b9~--
D--------*-----2p0-0-*---5s7----------------------
A-------------------------------------------------
E-------------------------------------------------

e-5-------------------------------------------10--
B---8-5-------------8-10--10-10--10-10---8-10-----
G-------7-5---5-7---------------------------------
D-----------7-------------------------------------
A-------------------------------------------------
E-------------------------------------------------

e-13~--10-13b15r13-10--13~--10~---13p10--13p10--13p10--13p10-
B------------------------------------------------------------
G------------------------------------------------------------
D------------------------------------------------------------
A------------------------------------------------------------
E------------------------------------------------------------

e-13b15~15r13~---------10-----------------------------------
B---------------13b15~----13-10-----------------------------
G-------------------------------12-10-------12----10--------
D-------------------------------------12-10----12----12-12--
A-----------------------------------------------------------
E-----------------------------------------------------------

Versos:

Guitarra 1:

  Bb  C        G7 A7
e---------    e-3-0-
B---------    B-3-2-
G-3-3-5-5-    G-4-0-
D-3---5--- X2 D-3-2-
A-1---3---    A-5-0-
E---------    E-3---
Los rayos x...   Los Oscuros...

Guitarra 2:

e-----------------------------
B-----------------------------
G-12b14~r12p10---12-12b14-----
D-------------------------12~-
A-----------------------------
E-----------------------------


e:I-------10----10----------------------------------------
B:I-13b15----13----10-------------------------------------
G:I-------------------12-10----14r12~--10----12----10-----
D:I-------------------------12------------12----12----12~-
A:I-------------------------------------------------------
E:I-------------------------------------------------------

Guitarra 1:

  Dm A7 C  G     Dm A7 F  G
e-5--3--3--3-----5--3--1--3-/
B-6--5--3--3-----6--5--1--3-/
G-7--6--5--4-----7--6--2--4-/
D---------------------------/
A---------------------------/
E---------------------------/
 Te rescatare    Te rescatare.

Guitarra 2:

e:I-s20~s15v~-----
B:I---------------
G:I---------------
D:I---------------
A:I---------------
E:I---------------

Pre Coro:

Guitarra 1:

  Bb  C  Am G A   Bb  C    A7       G7
e---------0----------------0-0-----------1-------1-------1---/
B---------1----------------2--2-------0----0-0-0---0-0-0--0--/
G-3-3-5-5-2-------3-3-5-5--0---0-----0-0----0-0-----0-0----0-/
D-3---5---2-------3---5----2----0---0-----------0-------0----/
A-1---3---0-------1---3----0---------------------------------/
E-----------3-5----------------------------------------------/
Los guardianes...Mientras...Hay tanto fraude a nuestro alrededor.

Guitarra 2:

e ----------------------------------
B ----------------------------------
G ----------------------------------
D --------s19--15~s----------------
A ----------------------------------
E ----------------------------------

e-------------------------------------------------------------
B----------13-------------------------------------------------
G-12b14~------12b14r12p10--12--10h12-12---12b14~r12p10-12-----
D---------------------------------------------------------12~-
A-------------------------------------------------------------
E-------------------------------------------------------------


Coro:

Guitarra1:

  D    C9   F /G  C B
e-2-2--3-0----3-3-----/
B-3-2--3-3----3-3-----/
G-2-2--0-0----0-0-----/
D-0-0--2-2------------/  X 2
A------3-3--------3-2-/
E-----------1---------/
 Es amor lo que sangra..

Guitarra 2:

e ---s10b-s10b-s10b----s10b-s10b-s10b--
B -------------------------------------
G -------------------------------------
D -------------------------------------
A -------------------------------------
E -------------------------------------

e-------------------------------------------------------------
B----------13-------------------------------------------------
G-12b14~------12b14r12p10--12--10h12-12---12b14~r12p10-12-----
D---------------------------------------------------------12~-
A-------------------------------------------------------------
E-------------------------------------------------------------

e-------------------------------------------------------------
B-------------------------------------------------------------
G--12b14r12p10--12--10h12-12---12b14~r12p10-12----------------
D---------------------------------------------------------12~-
A-------------------------------------------------------------
E-------------------------------------------------------------

Final: Con acustica.

   D     C9   F9   C9   G/B
e -2-2--3-3--3-3--3-3--3-3-----
B -3-3--3-3--1-1--3-3--3-3-----
G -2-2--0-0--2-2--0-0--0-0-----
D -0-0--2-2--3-3--2-2--0-0----- hasta Fade out.
A ------3-3-------3-3--2-2-----
E -----------------------------

No estoy muy seguro del final del solo ya que se hace muy rapido
 y se complica espero les sirva de algo y se q la parte
 de la primer guitarra es 100% correcta saludos
 y VIVA SODA Y CERATIII!!, dedicado a mi amiga sodasterica.
Suggest correction
Give kudos to tab author, rate the tab!
1 2 3 4 5
comments
print report bad tab
guest
Wanna post a correction for this tab? Suggest correction