Oops, an error
Loading. Please wait.

Té Para 3 Tab

version 1
version 1

Whole song

196 views 1 this week
no commentswrite comment
1 2 3 4 5
3 more votes to show rating
add to favorites
launch autoscroll
font size
0
reset
how to read this tab
guitar tuner
×
Best way to learn
"Té Para 3"
Autoscroll
slow
fast
+/-
esc
set tempo
stop
Introducción
      D/F#                               Em-Em7
E/---X---------------------------0-----------------------------------------
B/---3---------------------------0---3---0---------------------------------
G/---2-------------------------- 0-----------------------------------------
D/---0--------0~2~0-----------2--------------------------------------------
A/---0------------------0-------2------------------------------------------
E/---2---------------------------0-----------------------------------------
Esta parte se repite 2 veces y luego....
~ = pull off
/  = slide

            G                                                A                            Em-Em7
E/-------3--------3------3-/-5-----5-----3------------------------0--------
B/-------3----3------3----------5-----3----------2~3~2~0-----0---3---0-----
G/-------0------------------------------------------------------------0----
D/-------0------------------------------------------------------------2----
A/-------2-------------------------------------0----------------------2----
E/-------3-------------------------------------------------------------0---

Este es el fin de la introducción, y ahora empieza la cancion con las mismas 
notas de la entrada

         D/F#                 Em-Em7
Las tazas sobre el mantel

         D/F#                  Em-Em7
La lluvia derramada

         G               
Un poco de miel

      A                      Em-Em7
Un poco de miel, no basta


El eclipse no fue parcial
Y cegó nuestras miradas 
Te ví que llorabas
Te ví que llorabas, por él

      D/F#
Té para tres
      
      Sigue el mismo ritmo de canción, pero al estilo de la introducción

      Un sorbo de distracción
Buscando descifrarnos -------------al entrar al Em, se hace una pausa y
                                   no se toca en la palabra, sólo al 
                                   Final de esta se toca el arpegio de
                                   Abajo hacia arriba-
No hay nada mejor
Nada mejor, que casa.

Ahora viene el punteo del unplugged, original de Spinetta.
<x> = bend (estirar la nota)      

E/---------19---15--<14>-------19--15--<14>----------------------------------
B/----15----------------------15--------------------<17>--15--17-------------
G/---------------------------------------------------------------------------
D/---------------------------------------------------------------------------
A/---------------------------------------------------------------------------
E/---------------------------------------------------------------------------


E/---------19---15--<14>-------19--15--<14>------------------------------------
B/----15----------------------15--------------------<17>--15--17---------------
G/------------------------------------------------------------------------15/--
D/-----------------------------------------------------------------------------
A/-----------------------------------------------------------------------------
E/-----------------------------------------------------------------------------

E/---------19---15--<14>-------19--15--<14>------------------------------------
B/----15----------------------15--------------------<17>--15--17---------------
G/-----------------------------------------------------------------------------
D/-----------------------------------------------------------------------------
A/-----------------------------------------------------------------------------

E/-----------------------------------------------------------------------------
E/---------19---15--<14>-------19--15--<14>------------------------------------
B/----15----------------------15--------------------<17>--15--17---------------
G/-----------------------------------------------------------------------------
D/-----------------------------------------------------------------------------
A/-----------------------------------------------------------------------------
E/-----------------------------------------------------------------------------
       D5  E5 D5    E5     D5   B5   A
E/-----------------------------------------------------------------------------
B/-----------------------------------------------------------------------------
G/----7--/-9---7--/-9-----7----4-----2--------12/------------------------------
D/----7--/-9---7--/-9-----7----4-----2-----------------------------------------
A/----5--/-7---5--/-7-----5----2-----0-----------------------------------------
E/-----------------------------------------------------------------------------

      Ahora viene un punteo que aun no lo saco....

E/-----------------------------------------------------------------------------
B/-------------------------------------10--------------------------------------
G/--------------------------------10-------------------------------------------
D/---10----12-11-10-----12-----------------------------------------------------
A/-----------------------------------------------------------------------------
E/-----------------------------------------------------------------------------


      Despues de ese punteo viene...

E/-----------------------------------------------------------------------------
B/------8-------10---10/12----10----8---8/10---------12/14----12---------------
G/-----------------------------------------------------------------------------
D/---9-----9---10---10/12----10----9---9/11---11---11/14----12-----------------
A/-----------------------------------------------------------------------------
E/-----------------------------------------------------------------------------

                   Bm7      
E/--------------------7--------------------------------------------------------
B/----10---8------------7------------------------------------------------------
G/--------------------------7--------------------------------------------------
D/----11---9-------------------------------------------------------------------
A/--------------------9--------9-----------------------------------------------
E/-----------------------------------------------------------------------------

      Se repite la base del punteo

E/-----------------------------------------------------------------------------
E/---------19---15--<14>-------19--15--<14>------------------------------------
B/----15----------------------15--------------------<17>--15--17----15/--------
G/-----------------------------------------------------------------------------
D/-----------------------------------------------------------------------------
A/-----------------------------------------------------------------------------
E/-----------------------------------------------------------------------------


E/-----------------------------------------------------------------------------
E/---------19---15--<14>-------19--15--<14>------------------------------------
B/----15----------------------15--------------------<17>--15--17---------------
G/-----------------------------------------------------------------------------
D/-----------------------------------------------------------------------------
A/-----------------------------------------------------------------------------
E/-----------------------------------------------------------------------------


E/----15--12-------------------------------------------------------------------
B/--------------15--12---------------------------------------------------------
G/------------------------14--12-----------------------------------------------
D/----------------------------------14--12-------------------------------------
A/--------------------------------------------14--13--12-----------------------
E/-----------------------------------------------------------------------------

E/---------19---15--<14>-------19--15--<14>------------------------------------
B/----15----------------------15--------------------<17>--15--17---------------
G/-----------------------------------------------------------------------------
D/-----------------------------------------------------------------------------
A/-----------------------------------------------------------------------------
E/-----------------------------------------------------------------------------

E/-----------------------------------------------------------------------------
E/---------19---15--<14>-------19--15--<14>------------------------------------
B/----15----------------------15--------------------<17>--15--17---------------
G/-----------------------------------------------------------------------------
D/-----------------------------------------------------------------------------
A/-----------------------------------------------------------------------------
E/-----------------------------------------------------------------------------
Suggest correction
Give kudos to tab author, rate the tab!
1 2 3 4 5
comments
print report bad tab
guest
You may want to rate the tab now too:
select rating
Wanna post a correction for this tab? Suggest correction