Oops, an error
Loading. Please wait.

Té Para 3 Tab

version 2
version 2

Whole song

94 views 3 this week
no commentswrite comment
1 2 3 4 5
2 more votes to show rating
add to favorites
launch autoscroll
font size
0
reset
how to read this tab
guitar tuner
×
Best way to learn
"Té Para 3"
Autoscroll
slow
fast
+/-
esc
set tempo
stop
Este es el solo que hace Gustavo al final de
"Té para tres" (UNPLUGGED)

E/---------19---15----------------19--15----------------------------
B/----15------------17b-------15----------17b---------br17p15--17---
G/------------------------------------------------------------------
D/------------------------------------------------------------------
A/------------------------------------------------------------------
E/------------------------------------------------------------------

E/---------19---15----------------19--15---------------------------------------
B/----15------------17b-------15----------17b---------br17p15--17--------------
G/------------------------------------------------------------------br14p12----
D/--------------------------------------------------------------------------14-
A/-----------------------------------------------------------------------------
E/-----------------------------------------------------------------------------

E/---------19---15----------------19--15---------------------------
B/----15------------17b-------15----------17b---------br17--15--17-
G/-----------------------------------------------------------------
D/-----------------------------------------------------------------
A/-----------------------------------------------------------------
E/----------------------------------------------------------------- X2

E/-----5/7/5--5/7-5--7--7-------12/14-12------------------------
B/-----5/7/5--5/7-5--7--8---------------------------------------
G/--5--5/7/5--5/7-5--7--9-------12/14-12---5v--5-7-6-5v------5v-
D/--4-----------------------------------------------------------
A/--5-----------------------------------------------------------
E/--------------------------------------------------------------

E/-----7-10-9-7-------------------------------
B/---8----------10-7-8-7-8--------------------
G/-9-----------------------9-7-9-------9------
D/---------------------------------7/9---9/7--
A/--------------------------------------------
E/--------------------------------------------

E/-------3-------5---5/7--5---3--3/5------7/9--9--5---7------------------------
B/----------------------------------------------------8---8p7---7--------------
G/---3/4-----4/6-----5/7--5---4--4/6---7--7/9--9--6---9-------9----------------
D/----------------------------------------------------9------------------------
A/-----------------------------------------------------------------------------
E/-------------------------------------------------------------------0-0-0-0-0-

Se repite la base del solo

E/---------19---15----------------19--15---------------------------------------
B/----15------------17b-------15----------17b---------br17--15--17--14br12-----
G/------------------------------------------------------------------14br12-----
D/-------------------------------------------------------------------------14/-
A/-----------------------------------------------------------------------------
E/-----------------------------------------------------------------------------

E/---------19---15----------------19--15---------------------------
B/----15------------17b-------15----------17b---------br17--15--17-
G/-----------------------------------------------------------------
D/-----------------------------------------------------------------
A/-----------------------------------------------------------------
E/-----------------------------------------------------------------

E/----15--12----------------------------------------------
B/--------------15--12------------------------------------
G/------------------------14--12--------------------------
D/----------------------------------14--12----------------
A/--------------------------------------------14--13--12--
E/--------------------------------------------------------

E/---------19---15----------------19--15----------------------------
B/----15------------17b-------15----------17b---------br17--15--17v-
G/------------------------------------------------------------------
D/------------------------------------------------------------------
A/------------------------------------------------------------------
E/------------------------------------------------------------------ X2

por Ginosupernova
Suggest correction
Give kudos to tab author, rate the tab!
1 2 3 4 5
comments
print report bad tab
guest
You may want to rate the tab now too:
select rating
Wanna post a correction for this tab? Suggest correction