Oops, an error
Loading. Please wait.

Telarañas Tab

135 views 1 this week
no commentswrite comment
1 2 3 4 5
3 more votes to show rating
add to favorites
launch autoscroll
font size
0
reset
how to read this tab
guitar tuner
×
Best way to learn
"Telarañas"
Autoscroll
slow
fast
+/-
esc
set tempo
stop
INTRO:
e------12--10--8---7--7--8--7
B--10--10--10--10--8--8--8--8
G--9-------------------------

e------12--10--8---7--7--8--7
B--10--10--10--10--8--8--8--8
G--9-------------------------

e------12--10--8---7--7--8--7
B--10--10--10--10--8--8--8--8
G--9-------------------------

e--7--7--8--7---------8--7
B--8--8--8--8-------8-----
G--------------7--9-------

LAm     MIm
 Debo tomar el antídoto
 SOL     REm
 Para romper con la dives
 LAm     MIm
 Vivo como un sonámbulo
 SOL      MIm
 Buscando pliegues en la pared

 FA   SOL
 Telerañas, sueño con
 FA    MIm
 telarañas
 FA    SOL
 Telarañas,
      RE   DO
 que cuelgan de mí

INTRO:

 Esto parece un museo de cera
 Un simulacro demasiado real
 Debo encontrar algun sitio afuera
 Debo cambiar la cena entre...

 Telarañas, sueño con
 telarañas
 Telarañas
 que cuelgan de mí

 SOL     LA      FA
 Mis ojos perciben otra vez
      MIm
 Imágenes-retro
 MIm   LA    FA
 Asi es la trama de este film
       MIm
 Tu propio reflejo
   LAm  REm
 reflejo

 (LAm - REm)

 Mis ojos perciben otra vez
 Imágenes-Retro
 Reproduciéndose sin fin
 Dejándome inmovil entre ...

sta s mi 1ª cncion ... spero les gust
Suggest correction
Give kudos to tab author, rate the tab!
1 2 3 4 5
comments
print report bad tab
guest
You may want to rate the tab now too:
select rating
Wanna post a correction for this tab? Suggest correction