Oops, an error
Loading. Please wait.

Un Millón De Años Luz Tab

version 1
version 1

Whole song

Interactive

2,480 views 42 this week
no commentswrite comment
1 2 3 4 5
2 more votes to show rating
add to favorites
launch autoscroll
font size
0
reset
how to read this tab
guitar tuner
×
Best way to learn
"Un Millón De Años Luz"
Autoscroll
slow
fast
+/-
esc
set tempo
stop
Buenas aca les alcanzo uno de los mejores temas para mi de soda.
Para mi gusto esta muy bien sacado asiq espero q lo disfruten.
Para sacarla me base en la version del Ultimo Concierto

(x-x):notas mas rapidas
 b:estirada
 h:ligado
 s:slide(arrastra)

Durante este punteo la 2º guitarra hace estos acordes
INTRO [ B  A  E/G#  E ] (4)


E|-12h14-14-14-16h12-12-12-14-12-14-17-15b-14-17-15b-14-17-
B|12---------------16-----16-------------------------------
G|---------------------------------------------------------
D|---------------------------------------------------------
A|---------------------------------------------------------
E|---------------------------------------------------------

E|14-17-15b-14-14-12-12-14-12----------------------12-----
B|------------------16-----(16-16-16s14-14-14s12)14-16-14--
G|------------------------------------------------------14b
D|---------------------------------------------------------
A|---------------------------------------------------------
E|---------------------------------------------------------

E|--12---------------------|-------------------------------
B|14-16-14----14-12-16---14|---14--12b-14--12b--14-12b-----
G|--------14b----------14--|-14--14---14-14---14-14--------
D|-------------------------|-------------------------------
A|-------------------------|-------------------------------
E|-------------------------|-------------------------------

E|---------------------------------------------------------
B|---------------------------------------------------------
G|-14-13-11h13h11--11-13-----------------------------------
D|---------------14----------------------------------------
A|---------------------------------------------------------
E|---------------------------------------------------------

    B     A E/G# E     B       A     E/G#  E
No vuelvas........ no vuelvas sin razón
    B     A E/G# E         B          A     E/G#  E   B
no vuelvas........ yo estaré a un millón de años luz


             D         E  D  B
Y cuando el mundo oscurece
          D       E   G-A   B
y las promesas engañan
          D    E         D
nos revolcamos en el jardín
           B     D  E   B
por donde nadie pasa


           D         E   D   B
Del fuego vino el diluvio
         D           E G-A   B
la nave vuelve a partir
         D     E         D
y mi alimento son las cenizas
        B     D   E
de una noche larga


    B     A E/G# E     B       A     E/G#  E
No vuelvas........ no vuelvas sin razón
    B     A E/G# E         B          A     E/G#  E    [ B A E/G# E ] (4)
no vuelvas........ yo estaré a un millón de años luz de casa


B          D        E  D  B
De las historias pasadas
           D          E G-A   B
ya no me aturde el saber
            D    E         D
que ella conoce mi perversión
        B     D   E
en una noche larga
                 B   A  E/G# E
y esta noche es larga


    B       A     E/G#  E
No vuelvas sin razón
    B     A E/G# E         B          A     E/G#  E
no vuelvas........ yo estaré a un millón de años luz de casa
    B     A E/G# E         B          A     E/G#  E
no vuelvas........ yo estaré a un millón de años luz de casa

Solo
[ B  A  E/G#  E ] (4)

Saludos a todo el colegio alfred nobel y
a todos los fanaticos de Soda
Un abrazo enorme!
Suggest correction
Give kudos to tab author, rate the tab!
1 2 3 4 5
comments
print report bad tab
guest
You may want to rate the tab now too:
select rating
Wanna post a correction for this tab? Suggest correction