Oops, an error
Loading. Please wait.

Un Millón De Años Luz Tab

version 3
version 3

Whole song

Interactive

423 views 1 this week
no commentswrite comment
1 2 3 4 5
3 more votes to show rating
add to favorites
launch autoscroll
font size
0
reset
how to read this tab
guitar tuner
Autoscroll
slow
fast
+/-
esc
set tempo
stop
Help us to improve Ultimate-Guitar.com Take our survey!
×
hola¡ esta es mi primera
trascripsion y es la
version del ultimo concierto
espero q les sirva

intro:

e/--0h11h12h14-14-16-12-12-11-12-14-11-/
b/-------------------------------------/
g/-------------------------------------/
d/-------------------------------------/
a/-------------------------------------/
E/-------------------------------------/

e/-14-17-14-16p-14-17-14-16p-14-17-14-16p-/
b/----------------------------------------/
g/----------------------------------------/
d/----------------------------------------/
a/----------------------------------------/
E/----------------------------------------/

e/-14-12-11-11-12-14-12-11-11s9-9-9s7-7-/
b/--------------------------------------/
g/--------------------------------------/
d/--------------------------------------/
a/--------------------------------------/
E/--------------------------------------/

e/-9-12-11-9----9-12-9-11-9----9-9s7-7-11-7-7s5-5-9-/
b/----------10~------------10~----------------------/
g/--------------------------------------------------/
d/--------------------------------------------------/
a/--------------------------------------------------/
E/--------------------------------------------------/


e/-5-9-5-7p-5-9-5-7p-5-9-5-7p-5s4-4s2-2-2h4-2-/
b/--------------------------------------------/
g/--------------------------------------------/
d/--------------------------------------------/
a/--------------------------------------------/
E/--------------------------------------------/

verso I

    No vuelvas                  No vuelvas  sin razón
e/------------------5s4-4---/---------------------------/
b/--------------5-----------/-------------5----5-4------/
g/---4------2----4----------/---4-----2----4------------/
d/--4--2--------------------/--4--3---------------------/
A/-2------4-----------------/-2------4------------------/
E/-------5----4-------------/-------5---4---------------/

    No vuelvas              yo estare a un millon de años luz
e/-----------------4-2-5-2--/---------------------------/
b/--------------5-----------/-------------5----5-4------/
g/---4------2----4----------/---4-----2----4------------/
d/--4--3--------------------/--4--3---------------------/
A/-2------4-----------------/-2------4------------------/
E/-------5----4-------------/-------5---4---------------/

verso II

   Y cuando el mundo enmudece    Y las promesas engañan
e/------------------------------/-----------------3-3--2-2----/
b/--7-7---7-7--5-5-5--5--5--5---/--7-7---7-7--5---3-3--2-2----/
g/--8-8---7-7--4-4-4--6--4--6---/--8-8---7-7--4---0-0--2-2----/
d/--9-9---7-7--6-6-6--7--6--7---/--9-9---7-7--6---0-0--2-2----/
a/------------------------------/----------------------2-2----/
E/------------------------------/-----------------------------/

    nos revolcamos en el jardin por donde nadie pasa
e/------------------------------/-------------0---------------/
b/--7-7---7-7--5-5-5--5--5--5---/--7-7---7-7--0--0h2--0h2-----/
g/--8-8---7-7--4-4-4--6--4--6---/--8-8---7-7--1-----0----02s9-/
d/--9-9---7-7--6-6-6--7--6--7---/--9-9---7-7--2---------------/
a/------------------------------/-------------2---------------/
E/------------------------------/-------------0---------------/

    del fuego vino el diluvio    la nave vuelve a partir
e/------------------------------/-----------------3-3--2-2----/
b/--7-7---7-7--5-5-5--5--5--5---/--7-7---7-7--5---3-3--2-2----/
g/--8-8---7-7--4-4-4--6--4--6---/--8-8---7-7--4---0-0--2-2----/
d/--9-9---7-7--6-6-6--7--6--7---/--9-9---7-7--6---0-0--2-2----/
a/------------------------------/----------------------2-2----/
E/------------------------------/-----------------------------/

 y mi alimento son las cenizas de una noche larga
e/------------------------------/-------------------/
b/--7-7---7-7--5-5-5--5--5--5---/--7-7---7-7--5-----/
g/--8-8---7-7--4-4-4--6--4--6---/--8-8---7-7--4-----/
d/--9-9---7-7--6-6-6--7--6--7---/--9-9---7-7--6-----/
a/------------------------------/-------------------/
E/------------------------------/-------------------/

     No vuelvas                  No vuelvas  sin razón
e/------------------5s4-4---/---------------------------/
b/--------------5-----------/-------------5----5-4------/
g/---4------2----4----------/---4-----2----4------------/
d/--4--2--------------------/--4--3---------------------/
A/-2------4-----------------/-2------4------------------/
E/-------5----4-------------/-------5---4---------------/

    No vuelvas              yo estare a un millon de años luz de casa
e/-----------------4-2-5-2--/---------------------------/
b/--------------5-----------/-------------5----5-4------/
g/---4------2----4----------/---4-----2----4------------/
d/--4--3--------------------/--4--3---------------------/
A/-2------4-----------------/-2------4------------------/
E/-------5----4-------------/-------5---4---------------/

se repite el intro

    de las historias pasadas       ya no me aturde saber
e/------------------------------/-----------------3-3--2-2----/
b/--7-7---7-7--5-5-5--5--5--5---/--7-7---7-7--5---3-3--2-2----/
g/--8-8---7-7--4-4-4--6--4--6---/--8-8---7-7--4---0-0--2-2----/
d/--9-9---7-7--6-6-6--7--6--7---/--9-9---7-7--6---0-0--2-2----/
a/------------------------------/----------------------2-2----/
E/------------------------------/-----------------------------/

  ella conose mi perversion en una noche larga y esa noche es larga
e/------------------------------/-------------------/
b/--7-7---7-7--5-5-5--5--5--5---/--7-7---7-7--5-----/
g/--8-8---7-7--4-4-4--6--4--6---/--8-8---7-7--4-----/
d/--9-9---7-7--6-6-6--7--6--7---/--9-9---7-7--6-----/
a/------------------------------/-------------------/
E/------------------------------/-------------------/

            ohh                No vuelvas  sin razón
e/------------------5s4-4---/---------------------------/
b/--------------5-----------/-------------5----5-4------/
g/---4------2----4----------/---4-----2----4------------/
d/--4--2--------------------/--4--3---------------------/
A/-2------4-----------------/-2------4------------------/
E/-------5----4-------------/-------5---4---------------/

    No vuelvas               yo estare a un millon de años luz de casa
e/------------------4-2-5-2--/-----------------3-------/
b/--------------5------------/-------------5---3-------/
g/---4------2----4-----------/---4-----2----4--0-------/
d/--4--3---------------------/--4--3-----------0-------/
A/-2------4------------------/-2------4--------2-------/
E/-------5----4--------------/-------5---4-----3-------/

en eso suena el teclado entonces
en cuanto tocan la ultima nota
cerati ace este acorde

A/2s7-/
E/3s8-/

luego empieza a tocar otraves
esto pero con diferentes acordes

e/--0h11h12h14-14-16-12-12-11-12-14-11-/
b/-------------------------------------/
g/-------------------------------------/
d/-------------------------------------/
a/-------------------------------------/
E/-------------------------------------/

e/-14-17-14-16p-14-17-14-16p-14-17-14-16p-/
b/----------------------------------------/
g/----------------------------------------/
d/----------------------------------------/
a/----------------------------------------/
E/----------------------------------------/

e/-14-12-11-11-12-14-12-11-11s9-9-9s7-7-/
b/--------------------------------------/
g/--------------------------------------/
d/--------------------------------------/
a/--------------------------------------/
E/--------------------------------------/

e/-9-12-11-9----9-12-9-11-9----9-9s7-7-11-7-7s5-5-9-/
b/----------10~------------10~----------------------/
g/--------------------------------------------------/
d/--------------------------------------------------/
a/--------------------------------------------------/
E/--------------------------------------------------/

   yo estare a un millon de años luz de casa
e/-5-9-5-7p-5-9-5-7p-5-9-5-7p-5-9-5-7p-5-9-5-7p-/
b/----------------------------------------------/
g/----------------------------------------------/
d/----------------------------------------------/
a/----------------------------------------------/
E/----------------------------------------------/


e/--0h11h12h14-14-16-12-12-11-12-14-11-/
b/-------------------------------------/
g/-------------------------------------/
d/-------------------------------------/
a/-------------------------------------/
E/-------------------------------------/

e/-14-17-14-16-14-14-18x4-16x4-17x4-15x4-16x4-14x2-/
b/-------------------------------------------------/
g/-------------------------------------------------/
d/-------------------------------------------------/
a/-------------------------------------------------/
E/-------------------------------------------------/

e/-12-12-14-14s9-/
b/---------------/
g/---------------/
d----------------/
a/---------------/
E/---------------/

e/-9-12-11-9----9-12-9-11-9----9-9s7-7-11-7-7s5-5-9-/
b/----------10~------------10~----------------------/
g/--------------------------------------------------/
d/--------------------------------------------------/
a/--------------------------------------------------/
E/--------------------------------------------------/

   yo estare a un millon de años luz de casa
ahora empieza el solo
y pone casi todo el delay
si escuchan el disco,


e/--0--0--0--0--0--0--0--0--0--0--0--0--0--0--0--0--0--0--0-/
b/-10-10-10-10-10-10-10-10-10-10-10-10-10-10s12-12-12-12-12-/
g/-11-11-11-11-11-11-11-11-11-11-11-11-11-11s13-13-13-13-13-/
d/-12-12-12-12-12-12-12-12-12-12-12-12-12-12s14-14-14-14-14-/
a/----------------------------------------------------------/
E/----------------------------------------------------------/

e/--0--0--0--0--0--0--0--0--0--0--0--0--0--0--0--0--0--0--0-/
b/-10-10-10-10-10-10-10-10-10-10-10-10-10-10s12-12-12-12-12-/
g/-11-11-11-11-11-11-11-11-11-11-11-11-11-11s13-13-13-13-13-/
d/-12-12-12-12-12-12-12-12-12-12-12-12-12-12s14-14-14-14-14-/
a/----------------------------------------------------------/
E/----------------------------------------------------------/

e/--0--0--0--0--0--0--0--0--0--0--0--0--0--0--0--0--0--0--0-/
b/-10-10-10-10-10-10-10-10-10-10-10-10-10-10s12-12-12-12-12-/
g/-11-11-11-11-11-11-11-11-11-11-11-11-11-11s13-13-13-13-13-/
d/-12-12-12-12-12-12-12-12-12-12-12-12-12-12s14-14-14-14-14-/
a/----------------------------------------------------------/
E/----------------------------------------------------------/

e/--0--0--0--0--0--0--0--0--0--0--0--0-0-0-0-0-0-0-/
b/-10-10-10--9--9--9--9--9--9--8--8--8-7-7-7-6-6-6-/
g/-11-11-11-10-10-10-10-10-10--9--9--9-8-8-8-7-7-7-/
d/-12-12-12-11-11-11-11-11-11-10-10-10-9-9-9-8-8-8-/
a/-------------------------------------------------/
E/-------------------------------------------------/

e/------------------------------------------------------------/
b/------------------------------------------------------------/
g/-7b------------------------9b-------7b----------------------/
d/---9s7-9-9h11-7h9-9h11-7h9---11s9-11--9s7-9-9h11-7h9-9h11-7-/
a/-----------------9--------9-------------------------9-------/
E/------------------------------------------------------------/
Suggest correction
Give kudos to tab author, rate the tab!
1 2 3 4 5
comments
print report bad tab
guest
You may want to rate the tab now too:
select rating
Wanna post a correction for this tab? Suggest correction