Oops, an error
Loading. Please wait.

A Dónde Estás Tab

8 views 1 this week
no commentswrite comment
1 2 3 4 5
3 more votes to show rating
add to favorites
launch autoscroll
font size
0
reset
how to read this tab
guitar tuner
Autoscroll
slow
fast
+/-
esc
set tempo
stop
 Intro: C#m-A-C#m-A-A-G#-F#m-C#m-F#m-G#-A

 /=arrastre ó sloile up
 v= palnca ó vibratos

E|-----------------------------------------------|
B|-----------------------------------------------|
G|----6----8----9----8----6----8----9----8-------|
D|--6--6-6--6-6--6-6--6-6--6-6--6-6--6-6---------|
A|4----------------------------------------------|
E|-----------------------------------------------|

E|-----------------------------------------------|
B|-----------------------------------------------|
G|-----6----8----9----8----6----8----9----8------|
D|-7-7--7-7--7-7--7-7--7-7--7-7--7-7--7-7--------|
A|-----------------------------------------------|
E|-----------------------------------------------|

E|--9--11--12--11--9--11--12--11------|
B|-9--9---9---9---9--9---9---9---9----|
G|------------------------------------|
D|------------------------------------|
A|------------------------------------|
E|------------------------------------|

E|---9---11---12---11---9---11---12---11------|
B|-10--10---10---10---10--10---10---10--------|
G|--------------------------------------------|
D|--------------------------------------------|
A|--------------------------------------------|
E|--------------------------------------------|

E|--9--11--12--11--9--11--12--11------|
B|-9--9---9---9---9--9---9---9---9----|
G|------------------------------------|
D|------------------------------------|
A|------------------------------------|
E|------------------------------------|

E|---9---11---12---11---9---11---12---11------|
B|-10--10---10---10---10--10---10---10--------|
G|--------------------------------------------|
D|--------------------------------------------|
A|--------------------------------------------|
E|--------------------------------------------|

E|--------|------------------9-11-11-12-11-9-7-9-9-|
B|-2-4-5--|----------9-10-12-----------------------|
G|-------2|---8-9-11-------------------------------|
D|--------|11--------------------------------------|
A|--------|----------------------------------------|
E|--------|----------------------------------------|

E|-9-12-14-14/16-16-16-16-14/16v-------/21-19------
B|-------------------------------16-16-------------
G|-------------------------------------------------
D|-------------------------------------------------
A|-------------------------------------------------
E|-------------------------------------------------

E|-21/23-23-23p21-21v--|
B|---------------------|
G|---------------------|
D|---------------------|
A|---------------------|
E|---------------------|

Espero les lata esta rola esta chida se la rifo el Juan con esta rola
y que el ROCK SEA SEA.
ATT.: " EL LUIS " ó "EL PITÓN BREACK"
TU PADRE WEY
P.D. Ta facil mijo
Cualquier duda no duden en madar un mail a mi correo
chamaco_memo1993@
Suggest correction
Give kudos to tab author, rate the tab!
1 2 3 4 5
comments
print report bad tab
guest
Wanna post a correction for this tab? Suggest correction