Oops, an error
Loading. Please wait.

Ella Lo Trae Hasta Aquí (Rock Del Rescate) Tab

version 2
version 2

Whole song

11 views 3 this week
no commentswrite comment
1 2 3 4 5
3 more votes to show rating
add to favorites
launch autoscroll
font size
0
reset
how to read this tab
guitar tuner
×
Best way to learn
"Ella Lo Trae Hasta Aquí (Rock Del Rescate)"
Autoscroll
slow
fast
+/-
esc
set tempo
stop
este es mi primer tema q aporto espero q les guste!!!
solo me falta el riff con el q empieza el tema si alguien lo saco ,
pongalo ..

INTRO:

guitarra 2:
base 1 x 4:
-------------------------------------------------------
-------------------------------------------------------
-------------------------------------------------------
-------------------------------------------------------
-9-9-9---11--11--11---12--12--12----11---11---11-------
-7-7-7---7---7---7----7---7---7-----7----7----7--------


guitarra 1
riff 1 x 4:
-------------------------------------------------------
---4-------5-----7-------5-----------------------------
-------------------------------------------------------
-4---4s6-6---6s7---7s6-6-------------------------------
-------------------------------------------------------
-------------------------------------------------------

VERSO 1
guitarra 2:

-------------------------------------------------------
-------------------------------------------------------
-------------------------------------------------------
-------------------------------------------------------
-9-9-9---11--11--11---12--12--12----11---11---11-------
-7-7-7---7---7---7----7---7---7-----7----7----7--------

guitarra 1:
riff 1      riff 2         riff 3
-------     -------15-     ---------------------
-----7-     -14p16----     ---------------------
-7s8---     ----------     ---------------------
-------     ----------     ---------------------
-------     ----------     -9-9--11-11--12-12---
-------     ----------     -7-7--9--9---10-10---


verso 1:

Cuando todo a tu lado parece derrumbarse.
Cuando todo es una loca confusión.
Cuando tu alma solo quedó para el arrastre.
Y tu propio perro fue el que te mordio.        riff 1
Cuando crees que en el momento en que naciste,
justo el señor se fue a cagar.                 riff 2
Cuando la noche te encuentra solo y triste.
Y crees que nada, nada cambiará                riff 3

pos verso :

guitarra 1:
riff4
-----------------------------------
-----17-------15-------14-------12-
-----------------------------------
-s18----18s16----16s14----14s12----
-----------------------------------
-----------------------------------
guitarra 2 : MI

MI riff 4
El rocanroll viene aquí.

MI riff 4
Ella lo trae aquí.


guitarra 2: base de intro

Para llevarte y rescatarte.


ESTRIBILLO 1  :

GUITARRA 2: FA#-MI-FA#-MI -   BASE DE INTRO

GUITARRA 1 :


RIFF 5                     RIFF 6                RIFF 7
----------------------  -------------------   -------------
-----7-----9------11--  ----5-----7-----9--   -------------
---------------------   -------------------   ------9p7----
-5s7---7s9---9s11----   -3s5---5s7---7s9---   --7s9--------
----------------------- -------------------   -------------
----------------------- -------------------   -------------


FA#  riff 5                 riff 6Mi

Nena, lo único que quiero es una dosis de tu amor.

FA#   riff5                riff 7Mi
Nena lo único que quiero es una dosis...

           base de intro
de ese rocanroll, y rescatarte.


AGUANTE EL SOLDADO CARAJO !!!!!!!!!!!!!1

CUALQUIER COSA ROD_9988@

abrillar mi amorr ....
Suggest correction
Give kudos to tab author, rate the tab!
1 2 3 4 5
comments
print report bad tab
guest
You may want to rate the tab now too:
select rating
Wanna post a correction for this tab? Suggest correction