Oops, an error
Loading. Please wait.

Pluma De Águila Tab

26 views 1 this week
no commentswrite comment
1 2 3 4 5
3 more votes to show rating
add to favorites
×
Save as Personal and add changes to this tab that will be seen only by you. Learn more ›
×
You can save this tab as Personal to edit and correct it or add notes. All changes will be seen only by you. Learn more »
save as personal
new!
launch autoscroll
font size
0
reset
how to read this tab
guitar tuner
Autoscroll
slow
fast
+/-
esc
set tempo
stop
Riff 1:
e|---------------------------|
B|---------------------------|
G|---------------------------|
D|---------------------------|
A|----0-3s4-2-------0-3s4-2--|   x2
E|-2----------4-0-2----------|

Riff 2:

e|----0----|
B|--0--0---|
G|-1----1--|
D|---------|
A|---------|
E|---------|

Riff 3:
e|-------------|
B|----5~-------|
G|-4s6--6-4----|
D|---------6-4-|
A|-------------|
E|-------------|

Riff 4:
e|-------------|
B|-------------|
G|-------------|
D|----2~-------|
A|-2s4--4-2----|
E|---------5-2-|

Intro:

[F#m E] x2
[F#m Riff 2 E] x2
Riff 1

F#m                 E          F#m           E
Mi herida es un oro que, en el ojo del cazador,
F#m            E           F#m  [Riff 2] E
supura la más pura duda en él.
           F#m [Riff2] E
...duda en él

Jurándose que me acertó (bendito sea él)
besos ardientes da el desierto a mis pies.
...a mis pies

F#m             [Riff 3]F#m            [Riff 4]
Siempre seré yo,        pluma de águila.
F#m            E           F#m          E
Felino en paso lento, dios-búfalo, chamán.
F#m             [Riff 3]F#m            [Riff 4]
Retornaré yo, con el viento mis cenizas.
Guerrero visionario de la vieja conexión.

D               E
Galoparé en tus sueños
D                E
y en tu frío corazón
D                  E           F#m    Riff 2
  fertilizado con la sangre del fervor.
           F#m  Riff2
...del fervor

Solo:


e|-14----14----14----------------------------------------------------|
B|-17b~~-17b~~-17b~~-17br-17br-14-17~-19-17-14-----------------------|
G|--------------------------------------------16~--14h16p14-14-16----|
D|-------------------------------------------------------------------|
A|-------------------------------------------------------------------|
E|-------------------------------------------------------------------|

e|-------------------------------------------17b--17--17br-14----14~-|
B|-----------------------5----------5--------------------------17----|
G|------------------4s6-6-4-6-4-6---6-4------------------------------|
D|------14h16p14-------------------------6-4-------------------------|
A|--16---------------------------------------------------------------|
E|-------------------------------------------------------------------|


Jurándose que me acertó (bendito sea él)
besos ardientes da el desierto a mis pies.

Siempre seré yo, pluma de águila.
Felino en paso lento, dios-búfalo, chamán.
Retornaré yo, con el viento mis cenizas.
Guerrero visionario de la vieja conexión.

Galoparé en tus sueños
y en tu frío corazón
                               F#m  E
fertilizado con la sangre del fervor.
      F#m    E
del fervor

F#m                 E           F#m          E
Mi herida es un oro que, en el ojo del cazador,
F#m           E           F#m [Riff 2] E
supura la más pura duda en él.
        F#m [Riff 2] E
duda en él.

[Riff 1] x2
Suggest correction
Give kudos to tab author, rate the tab!
1 2 3 4 5
comments
print report bad tab
guest
Wanna post a correction for this tab? Suggest correction