Oops, an error
Loading. Please wait.

Alma, Corazón Y Vida Chords

43 views 1 this week
no commentswrite comment
1 2 3 4 5
3 more votes to show rating
add to favorites
launch autoscroll
font size
0
reset
transpose
0
reset
simplify chords
display chords
guitar tuner
Autoscroll
slow
fast
+/-
esc
set tempo
stop
Help us to improve Ultimate-Guitar.com Take our survey!
×
G#m-G#7

   C#m                  G#m                  D#7                      G#m     G#7

E:-------------6-4-6-4--------------6-4-6-4------3-------3-------3-----4-4--2-3-4-5-4-3-------
B:---5---5---5------------4---4---4------------4---4---4---4---4---4---4----------------7-5---
G:-6---6---6------------4---4---4------------3-------3-------3-------3-3--------------------7-
D:--------------------------------------------------------------------------------------------
A:--------------------------------------------------------------------------------------------
E:--------------------------------------------------------------------------------------------


  C#m                   G#m                  D#7                       G#m

E:-------------6-4-6-4--------------6-4-6-4------3-------3-------3------------------4--
B:---5---5---5------------4---4---4------------4---4---4---4---4---4--------------4----
G:-6---6---6------------4---4---4------------3-------3-------3-------3----------4------
D:------------------------------------------------------------------------6-5-6--------
A:----------------------------------------------------------------------6--------------
E:-------------------------------------------------------------------------------------


                 G#m   G#7
Recuerdo aquella vez
             C#m
que yo te conocí,
                   G#m
recuerdo aquella tarde,
             D#7
pero no recuerdo
             G#m
ni cuando te ví.

             G#m G#7
Pero si te diré
               C#m
que yo me enamoré
                G#m
de tus hermosos ojos
             D#7
y tus labios rojos
             G#m
que no olvidaré.

G#m
Toma esta canción que lleva
F#
alma, corazón y vida
E
esas tres cositas
Bb7         D#7
nada más te doy.

G#m
Como no tengo fortuna
F#
esas tres cosas te ofrezco
E
alma, corazón y vida
Bb7    D#7
y nada más.

C#m
Alma para conquistarte,
G#m
corazón para quererte
D#7                         G#m        G#7
y vida para vivirla junto a tí, amor, amor...

C#m
Alma para conquistarte,
G#m
corazón para quererte
D#7                         G#m  G#m F# E
y vida para vivirla junto a tí.
D#7                         G#m  G#m F# E
y vida para vivirla junto a tí
D#7                         G#m
y vida para vivirla junto a tí
Suggest correction
Give kudos to tab author, rate the tab!
1 2 3 4 5
comments
print report bad tab
guest
You may want to rate the tab now too:
select rating
Wanna post a correction for this tab? Suggest correction