Oops, an error
Loading. Please wait.

Kilómetro 11 Tab

107 views 1 this week
no commentswrite comment
1 2 3 4 5
3 more votes to show rating
add to favorites
launch autoscroll
font size
0
reset
how to read this tab
guitar tuner
×
Best way to learn
"Kilómetro 11"
Autoscroll
slow
fast
+/-
esc
set tempo
stop
INTRO: E - E B7 E G B7 E

E:-9-7-9-7-9-7-9-5--7-5-7-5-7-5-7-7--9-7-9-7-9-7--7-8-9-10--------------------|
B:-9-9-9-9-9-9-9-7--7-7-7-7-7-7-7-9--9-9-9-9-9-9------------10-9-12-10-9------|
G:-----------------------------------------------------------------------11-9-|
D:----------------------------------------------------------------------------|
A:----------------------------------------------------------------------------|
E:----------------------------------------------------------------------------|

E:-9-7-7-7--9-7-7-7--9-7-7-7--9-5-5-5--7-5-5-5--7-5-5-5--7-5-5-5--7-----|
B:-9-9-9-9--9-9-9-9--9-9-9-9--9-7-7-7--7-7-7-7--7-7-7-7--7-7-7-7--7--9--|
G:----------------------------------------------------------------------|
D:----------------------------------------------------------------------|
A:----------------------------------------------------------------------|
E:----------------------------------------------------------------------|

E:-9-7-7-7--9-7-7-7--9-7-7-7--7-8-9-10--------------------------------|
B:-9-9-9-9--9-9-9-9--9-9-9-9-----------10-9-12-10-9------9------------|
G:--------------------------------------------------11-9---9---9------|
D:-----------------------------------------------------------9---9----|
A:-----------------------------------------------------------------11-|
E:--------------------------------------------------------------------|

   E
Vengo otra vez hasta aquí

E:-------12-9-------12-|
B:-----9---------------|
G:---9------------9----|
D:-9------------9------|
                        B7
de nuevo a implorar tu amor,

E:-------7--------7--------7--|
B:----------------------------|
G:----------------------------|
D:-7-8-9----7-8-9----7-8-9----|

solo hay tristeza y dolor

E:-7-5--------------|
B:-----7-4------4-7-|
G:---------4--4-----|

                  E
al verme lejos de ti.

E:-12-11-9--12-11-9-|
B:-9--9--9--9--9--9-|
G:-9--9--9--9--9--9-|


                  C#m
Culpable tan solo soy

E:-----------------------|
B:---------------------9-|
G:-9-------8-9--9/8------|
D:---11-10----------11---|

                    B7
de todo lo que he sufrido

E:-------7-6-7-----7-|
B:-----7-------------|
G:---8-----------8---|
D:-9-----------9-----|

por eso es que ahora he venido

E:-5--------------7-|
B:---7-4------4-7---|
G:-------4--4-------|
                       E
y triste, muy triste estoy.

E:-12-11-9--12-11-9-|
B:-9--9--9--9--9--9-|
G:-9--9--9--9--9--9-|

   E
Nunca vayas a olvidar

E:----------------------------|
B:-------------9-12--12/9-----|
G:------8-9-11------------9---|
D:-9-11---------------------9-|
                     B7
que un día a este cantor

E:------7--6---7-|
B:---------------|
G:---8---8---8---|
D:-9-------------|

le has dicho llena de amor

E:-----------7-|
B:-----7---7---|
G:---8---8-----|
D:-9-----------|
                     E
sin ti no me podré hallar.

E:------------------------|
B:-------------9-12-9-----|
G:------8-9-11--------9---|
D:-9-11-------------------|

                 C#m
Por eso quiero saber

E:------------------|
B:-----------9------|
G:---------9---9----|
D:-9-10-11-------11-|

                     B7
si existe en tu pensamiento

E:-------7-|
B:-----7---|
G:---8-----| x4
D:-9-------|
aquel puro sentimiento
                 E
que me supiste tener.

E:-12-|
B:-9--|
G:-9--|


Olvida, mi bien,
          B7
el enojo aquel

E:-------------------5-----|
B:-------------5-6-7---4---|
G:-------6-7-8-----------4-|
D:-7-8-9-------------------|

que así nuestro amor
          E
irá a renacer

E:-12-11-9--12-11-9-|
B:-9--9--9--9--9--9-|
G:-9--9--9--9--9--9-|

porque comprendí
            G
que no se vivir
B7        E
sin tu querer.

INTRO

   E
Nunca vayas a olvidar

E:-------12-9-|
B:-----9------|
G:---9--------|
D:-9----------|
                    B7
que un día a este cantor

E:-------7--------7--------7--|
B:----------------------------|
G:----------------------------|
D:-7-8-9----7-8-9----7-8-9----|

le has dicho llena de amor

E:-5--------------7-|
B:---7-4------4-7---|
G:-------4--4-------|

                    E
sin ti no me podré hallar.

E:----------------------------|
B:-------------9-12--12/9-----|
G:------8-9-11------------9---|
D:-9-11---------------------9-|

                 C#m
Por eso quiero saber

E:---------------------|
B:---------------7-8-9-|
G:---------7-8-9-------|
D:-9-10-11-------------|
                     B7
si existe en tu pensamiento

E:-7-6-5-|
B:-4-4-4-| x3
G:-4-4-4-|

aquel puro sentimiento
                 E
que me supiste tener.


Olvida, mi bien,
          B7
el enojo aquel

E:-------------------5-----|
B:-------------5-6-7---4---|
G:-------6-7-8-----------4-|
D:-7-8-9-------------------|

que así nuestro amor
          E
irá a renacer

E:-12-11-9--12-11-9-|
B:-9--9--9--9--9--9-|
G:-9--9--9--9--9--9-|

porque comprendí
            G
que no se vivir
B7        E
sin tu querer.

E:-12-11-9--12-11-9-|
B:-9--9--9--9--9--9-|
G:-9--9--9--9--9--9-|


Olvida, mi bien,
          B7
el enojo aquel

E:-------7--------7--------7--|
B:----------------------------|
G:----------------------------|
D:-7-8-9----7-8-9----7-8-9----|

que así nuestro amor
          E
irá a renacer

E:-12-11-9--12-11-9-|
B:-9--9--9--9--9--9-|
G:-9--9--9--9--9--9-|

porque comprendí
            G
que no se vivir
B7        E
sin tu querer.
Suggest correction
Give kudos to tab author, rate the tab!
1 2 3 4 5
comments
print report bad tab
guest
You may want to rate the tab now too:
select rating
Wanna post a correction for this tab? Suggest correction