Oops, an error
Loading. Please wait.

Yo Si Quiero A Mi País Chords

version 1
version 1

Whole song

22 views 1 this week
no commentswrite comment
1 2 3 4 5
3 more votes to show rating
add to favorites
launch autoscroll
font size
0
reset
transpose
0
reset
simplify chords
display chords
guitar tuner
×
Best way to learn
"Yo Si Quiero A Mi País"
Autoscroll
slow
fast
+/-
esc
set tempo
stop
INTRO: Am F G Am

E:---------12-10---8-10-8-----|----------8-10----12-10-8-|
B:------10-----------------10-|-12-12-12------12---------|
G:----9-----------------------|--------------------------|
D:-10-------------------------|--------------------------|
A:----------------------------|--------------------------|
E:----------------------------|--------------------------|

E:---------12-10---8-10-8---|----------8-10----8--|
B:------10------------------|-12-12-12------12----|
G:----9---------------------|---------------------|
D:-10-----------------------|---------------------|
A:--------------------------|---------------------|
E:--------------------------|---------------------|

           Am
Soy un viajante un caminante
       F
con la vida por delante
        G
y llevo tanto, tanto
              (Am) (E:--4xr--5--5/7--5--7--)
amor dentro de mi.

           Am
Conozco cielos, mares, ríos, lares
  F       (E:--12--10--8--5--)
y en mis mil andares
      G
nunca me he olvidado
          Am (E:--5--4--1--0--)
de donde salí.

           Am
Tu sol me lleva de la mano
       F
a cualquier rincón lejano
      G
mi regreso tu no
             Am(E:--------10-13/15-12-10----)
             (B:---9-12----------------10-)
               (G:-9------------------------)
dejas de esperar.

           Am
Y ese espíritu ese ambiente
                        (E:-10-12-13-13-)
                  (B:-10----------)
      F            (G:-10----------)
que se ve en toda la gente
          G
que a ningún otro
              E
se puede igualar.

         Dm
Porque vive muy profundo
       Am (E:-5-5-5-7-5)
dentro de mi corazón
       Dm                   Am
el recuerdo de los días del ayer
       Dm
No hay esquina en este mundo
       Am (E:-5-5-5-7-8)
que me pueda hacer borrar
   E            E7             Am (E:-5-->10)
el amor por esa tierra que me vio nacer.

        Dm
Y a la tierra la quiero tanto
   Am
vivirá por siempre en mi
   E            (E:-0-1-3-1-0-5-7-8)
todo mi sentimiento
              Am
te lo ofrezco yo a ti,
       Dm
se lo pido a todos los santos
      Am (E:-5-5-3-3-1-1)
que vigilen sobre ti...
F                        E
   yo si quiero a mi paí----s.

INTRO

             Am
Tierra de mi alma, luna ardiente,
     F
sol caliente son mi gente
       G
que me inspiran
             Am(E:--------10-13/15-12-10----)
             (B:---9-12----------------10-)
               (G:-9------------------------)
cada día el amanecer.

         Am
Hay caminos en que andamos
  F       (E:--12--10--8--5--)
y a veces tropezamos
       G
tu cariño como madre
                E
nos ayudará a vencer.

         Dm
Porque vive muy profundo
       Am (E:-5-5-5-7-5)
dentro de mi corazón
       Dm                   Am
el recuerdo de los días del ayer
       Dm
No hay esquina en este mundo
       Am (E:-5-5-5-7-8)
que me pueda hacer borrar
   E            E7             Am (E:-5-->10)
el amor por esa tierra que me vio nacer.

        Dm
Y a la tierra la quiero tanto
   Am
vivirá por siempre en mi
   E            (E:-0-1-3-1-0-5-7-8)
todo mi sentimiento
              Am
te lo ofrezco yo a ti,
       Dm
se lo pido a todos los santos
      Am (E:-5-5-3-3-1-1)
que vigilen sobre ti...
F                        E
   yo si quiero a mi paí----s.

E:---1---1---0-------0-------------0-----1---1---0-------0---------4-5-7-4-5-7-8-|
B:-3---3---3---1---1---3-0---0-1-3-----3---3---3---1---1---3-0---0---------------|
G:---------------2---------2-------------------------2---------2-----------------|
   Dm        Am        E         Am    Dm        Am      E        Am
Oeo,                                 oeo

E:---1---1---0-------0-------------0-----1---1---0-------0---------4-5-7-4-5--|
B:-3---3---3---1---1---3-0---0-1-3-----3---3---3---1---1---3-0---0------------|
G:---------------2---------2-------------------------2---------2--------------|
   Dm        Am        E         Am    Dm        Am      E        Am
Oeo,                                 oeo

E:---------------------------13-12----------13-12-|
B:----------9-10-13-12----12-------13-12-12-------|RIFF1
G:-9-8-9-10------------13-------------------------|

E:---------------------------13-12-10------|
B:----------9-10-13-12----12----------10---|RIFF2
G:-9-8-9-10------------13------------------|

E(RIFF1)
laralalalalayla
Am
laralalalalayla
E(RIFF2)         Am
laralalalalayla, la
E(RIFF1)
laralalalalayla
Am
laralalalalayla
E(RIFF2)         Am  (Am-G-F-E) (B:-10-10-8-8-6-6-)
laralalalalayla, la... ah...

E:-7-7-5-5-7-7-5-5-7-7-5-5-7-|
B:-5-5-3-3-5-5-3-3-5-5-3-3-5-|x4

         Dm
Porque vive muy profundo
       Am (E:-5-5-7-9)
dentro de mi corazón
       Dm                   Am
el recuerdo de los días del ayer
       Dm
No hay esquina en este mundo
       Am
que me pueda hacer borrar
   E            E7             Am
el amor por esa tierra que me vio nacer.

        Dm
Y a la tierra la quiero tanto
   Am
vivirá por siempre en mi
   E            (E:-0-1-3-1-0-5-7-8)
todo mi sentimiento
              Am
te lo ofrezco yo a ti,
       Dm
se lo pido a todos los santos
      Am (E:-5-5-3-3-1-1)
que vigilen sobre ti...
F                        E
   yo si quiero a mi paí----s.


        Dm
Y a la tierra la quiero tanto
   Am
vivirá por siempre en mi
   E            (E:-0-1-3-1-0-5-7-8)
todo mi sentimiento
              Am
te lo ofrezco yo a ti,
       Dm
se lo pido a todos los santos
      Am (E:-5-5-3-3-1-1)
que vigilen sobre ti...
F                        E
   yo si quiero a mi paí----s.

E:---------12-10---8-10-8---|-7-7-7-8-10-7-8-7-8-|--------------------------------------|
B:------10------------------|--------------------|-10-10-10-10-8--8-8--------------8-10-|
G:----9---------------------|--------------------|--------------------10-10--10-10------|
D:-10-----------------------|--------------------|--------------------------------------|
A:--------------------------|--------------------|--------------------------------------|
E:--------------------------|--------------------|--------------------------------------|
   Am         F          G           Am           Am         G       F      Dm    Am
Suggest correction
Give kudos to tab author, rate the tab!
1 2 3 4 5
comments
print report bad tab
guest
You may want to rate the tab now too:
select rating
Wanna post a correction for this tab? Suggest correction