Oops, an error
Loading. Please wait.

Amor Que Terminó Tab

41 views 1 this week
no commentswrite comment
1 2 3 4 5
3 more votes to show rating
add to favorites
×
Save as Personal and add changes to this tab that will be seen only by you. Learn more ›
×
You can save this tab as Personal to edit and correct it or add notes. All changes will be seen only by you. Learn more »
save as personal
new!
launch autoscroll
font size
0
reset
how to read this tab
guitar tuner
Autoscroll
slow
fast
+/-
esc
set tempo
stop
Intro: C C C C F F C C


E|------------------------------------|-----------------------------------|
B|--3--3--4--4/6--6--6----------------|--3--4--4--4----4---3--------------|
G|--3--3--5--5/7--7--7----------------|--3--5--5--5/3--3---3--------------|
D|------------------------------------|------------------------3-5-3---3--|
A|------------------------------------|----------------------5-------5----|
e|------------------------------------|-----------------------------------|

Bb
Hace mucho tiempo atrás
 Eb             Bb
yo tuve un amor siempre la quise mucho
Eb                   F
fue mi primer ilusión.
Bb         Bb/A    Gm
Pienso yo que nuestro amor
Eb                      Bb
muy pronto se terminó
   F                Eb    (2) Bb
amor fue lo que en ti hallé.

Riff


E|------------------------------------|-----------------------------------|
B|------------------------------------|-----------------------------------|
G|-------3--5--5/6---6/5/3----3-------|-----------------------------------|
D|---3/5-------------------5----------|------3--5--3----3-----------------|
A|------------------------------------|---5----------5--------------------|
e|------------------------------------|-----------------------------------|


Bb
Ahora que te vuelvo a ver
 Eb             Bb
no siento lo que sentí
Eb                   F
como mucho tiempo atrás
Bb         Bb/A    Gm         Bb/F
queeras todo para mí. Quiero que tú seas igual
Eb                      Bb
y mires que nuestro amor
  F                Eb    (2) Bb
fue amor que ya se terminó.


E|------------------------------------|-----------------------------------|
B|------------------------------------|-----------------------------------|
G|-------3--5--5/6---6/5/3----3-------|-----------------------------------|
D|---3/5-------------------5----------|------3--5--3----3-----------------|
A|------------------------------------|---5----------5--------------------|
e|------------------------------------|-----------------------------------|


Una pequeña variacion entra aqui:


E|------------------------------------|-----------------------------------|
B|--3--3--4--4/6--6--6----------------|--3--4--4/6-4----------------------|
G|--3--3--5--5/7--7--7----------------|--3--5--5---5---5---3--------------|
D|------------------------------------|----------------5---3---3-5-3----3-|
A|------------------------------------|----------------------5-------5----|
e|------------------------------------|-----------------------------------|


Intro nuevamente:


E|------------------------------------|-----------------------------------|
B|--3--3--4--4/6--6--6----------------|--3--4--4--4----4---3--------------|
G|--3--3--5--5/7--7--7----------------|--3--5--5--5/3--3---3--------------|
D|------------------------------------|------------------------3-5-3---3--|
A|------------------------------------|----------------------5-------5----|
e|------------------------------------|-----------------------------------|

Bb
Cuando un hombre quiere así
 Eb                       Bb
dificil es de olvidar pero si dejan de verse
Eb                   F
se empiezan a separar .
Bb         Bb/A    Gm
ahora ya comprendo bien
Eb          Bb
que todo se termino
   F                Eb    (2) Bb
amor fue lo que en ti hallé.


E|------------------------------------|-----------------------------------|
B|------------------------------------|-----------------------------------|
G|-------3--5--5b6---6r5r3----3-------|-----------------------------------|
D|---3h5-------------------5----------|-----------------------------------|
A|------------------------------------|-----------------------------------|
e|------------------------------------|-----------------------------------|


E|------------------------------------|-----------------------------------|
B|---------1-h3r1---------------------|-----------------------------------|
G|---2-h3--2------2---0----1--0----1--|-----------------------------------|
D|---3------------3---0-h2-0--0-h2-0--|-----------------------------------|
A|------------------------------------|--5-h-7--5---5-h-7--5--------------|
e|------------------------------------|--3------3---3------3--------------|


Bb
Ahora que te vuelvo a ver
 Eb             Bb
no siento lo que sentí
Eb                   F
como mucho tiempo atrás
Bb         Bb/A    Gm         Bb/F
queeras todo para mí. Quiero que tú seas igual
Eb                      Bb
y mires que nuestro amor
  F                Eb    (2) Bb
fue amor que ya se terminó.

E|------------------------------------|-----------------------------------|
B|------------------------------------|-----------------------------------|
G|-------5--7--7b8---8r7r5----5-------|-----------------------------------|
D|---5h7-------------------7----------|---------7--5----5-----------------|
A|------------------------------------|--------------7--------------------|
e|------------------------------------|-----------------------------------|

  F                Eb    (2) Bb
fue amor que ya se terminó.

E|------------------------------------|-----------------------------------|
B|------------------------------------|-----------------------------------|
G|-------5--7--7b8---8r7r5----5-------|-----------------------------------|
D|---5h7-------------------7----------|---------7--5----5-----------------|
A|------------------------------------|--------------7--------------------|
e|------------------------------------|-----------------------------------|

E|------------------------------------|-----------------------------------|
B|------------------------------------|-----------------------------------|
G|-------5--7--7b8---8r7r5----5-------|-----------------------------------|
D|---5h7-------------------7----------|---------7--5----5-----------------|
A|------------------------------------|--------------7--------------------|
e|------------------------------------|-----------------------------------|


pequeña variacion nuevamente

E|------------------------------------|-----------------------------------|
B|--5--5--6--6/8--8--8----------------|--5--6--6h8-6----------------------|
G|--5--5--7--7/9--9--9----------------|--5--7--7---7---7---5--------------|
D|------------------------------------|----------------7---5---5-7-5----5-|
A|------------------------------------|----------------------7-------7----|
e|------------------------------------|-----------------------------------|


Intro nuevamente:


B|------------------------------------|-----------------------------------|
G|--5--5--6--6/8--8--8----------------|--5--6--6--6----6---5--------------|
D|--5--5--7--7/9--9--9----------------|--5--7--7--7r5--5---5--------------|
A|------------------------------------|------------------------5-7-5----5-|
e|------------------------------------|----------------------7-------7----|
E|------------------------------------|-----------------------------------|


acordes

Bb
xxxxxx
------
--xxx-
------
------
------


Eb
------
------
xxxxxx
----x-
--x---
-x----
------


 Bb/A
------
------
--xxx-
------
------
------

 Bb/F
6º----x-
  ---x--
  -xx---
  ------
  ------
  ------


ojala le sguste esta correccion es una buena cancion
mi correo sugerencia y quejas
danort_01@
Suggest correction
Give kudos to tab author, rate the tab!
1 2 3 4 5
comments
print report bad tab
guest
Wanna post a correction for this tab? Suggest correction