Oops, an error
Loading. Please wait.

Ladrón De Tu Amor Tab

by Sombras
14 views 1 this week
no commentswrite comment
1 2 3 4 5
3 more votes to show rating
add to favorites
×
Save as Personal and add changes to this tab that will be seen only by you. Learn more ›
×
You can save this tab as Personal to edit and correct it or add notes. All changes will be seen only by you. Learn more »
save as personal
new!
launch autoscroll
font size
0
reset
how to read this tab
guitar tuner
Autoscroll
slow
fast
+/-
esc
set tempo
stop
INTRO

E)---------------------------------------------------------
B)-----------6-8-6--------6--------------------------------
G)-4-5-7-9---------9-7---9---9-7-5---7-9-7-5-4---4--5--7---  X2
D)---------------------------------------------------------
A)---------------------------------------------------------
E)---------------------------------------------------------

"PUNTEO"

E)-------------------------------7-8-------
B)-10-8-10-8-10-8-10-8-10---8-10-----8-----
G)-------------------------------------9---
D)-----------------------------------------
A)-----------------------------------------
E)-----------------------------------------

E)----------------------------------7-8---10---
B)-10-8-10-8-10-8-10-8-10---8-10---------------
G)---------------------------------------------
D)---------------------------------------------
A)---------------------------------------------
E)---------------------------------------------

REPITE 2 VECES EL PUNTEO

E)----------7-
B)-8-8--10----
G)------------
D)------------
A)------------
E)------------

C            G          Am    F G
  POR QUE TU BOCA ME PROVOCA
C      G          Am          F G
  UN BESITO TE ROBE
C        G             Am     F G
  Y AL BESARTE ME DI CUENTA
C          G         Am       F G
  QUE ERAS COMO TE SOÑE

REPITE 2 VECES EL PUNTEO

C             G             Am   F G
  DICEN QUE AMARTE ES UN PECADO
C          G              Am     F G
  Y NO TENDRE PERDON DE DIOS
C               G        Am      F G
  POR QUE AL ESTAR ENAMORADO ASI
C       G             Am         F G  E7
  DICEN QUE SOY UN LADRON


                Dm
   SI ROBO TU AMOR
G               C
   YO SOY UN LADRON
Am               Dm
   LADRON DE TU AMOR
G                C
   LADRON DE TU AMOR
Am              Dm  (TUM)
   SI ROBO TU AMOR
                 F C G C F C G C
   LADRON DE TU AMOR  (LOS ACORDES SE TOCAN A LA MISMA
                        VELOCIDAD EN TODO ESTRIBILLO)

Igual que "INTRO"

C             G             Am   F G
  DICEN QUE AMARTE ES UN PECADO
C          G              Am     F G
  Y NO TENDRE PERDON DE DIOS
C               G        Am      F G
  POR QUE AL ESTAR ENAMORADO ASI
C       G             Am         F G  E7
  DICEN QUE SOY UN LADRON


                Dm
   SI ROBO TU AMOR
G               C
   YO SOY UN LADRON
Am               Dm
   LADRON DE TU AMOR
G                C
   LADRON DE TU AMOR
Am              Dm  (TUM)
   SI ROBO TU AMOR
                 F C G C F C G C
   LADRON DE TU AMOR


E)-8-7-5---5-------------------------
B)-------8---8-6-5-6-5-------3---5---
G)---------------------7-5-7-4---5---
D)---------------------------5---5---
A)-----------------------------------
E)-----------------------------------

Por cualquier cosa rex_10000@
Aguante Malón y Hermética!!!!!!!!!
Suggest correction
Give kudos to tab author, rate the tab!
1 2 3 4 5
comments
print report bad tab
guest
Wanna post a correction for this tab? Suggest correction