Oops, an error
Loading. Please wait.

Niña Caprichosa Tab

31 views 1 this week
no commentswrite comment
1 2 3 4 5
3 more votes to show rating
add to favorites
launch autoscroll
font size
0
reset
how to read this tab
guitar tuner
×
Best way to learn
"Niña Caprichosa"
Autoscroll
slow
fast
+/-
esc
set tempo
stop
Este es el intro:


e|-----------------------------|---------------------------|
b|-----------------------------|---------------------------|
g|-----------------------------|---------------------------|
D|--------3-----------3--------|--------3------------3-----|
A|--3--5----5--3--55-----5-5---|--3--5-----5--3--55-----3-3|
E|-----------------------------|---------------------------|


e|---------------------------|--------------------------|
b|---------------------------|--------------------------|
g|---------------------------|--------------------------|
D|------2-------------2------|------2-----------2-------|
A|-1--3---3--1--3--3----3-3--|-1--3---3--1--3-3----5-5--|
E|---------------------------|--------------------------|


e|------5---8/10--8--|------5---10/12--10-------|
b|----6--------------|----6---------------------|
g|--7----------------|--7-----------------------|
D|-------------------|--------------------------|
A|-------------------|--------------------------|
E|-------------------|--------------------------|


e|------5---8/10--8--|------5--6-5--------------|
b|----6--------------|----6---------------------|
g|--7----------------|--7-----------------------|
D|-------------------|--------------------------|
A|-------------------|--------------------------|
E|-------------------|--------------------------|

Gracias.
Rodrigo , diciembre 16 2010
Suggest correction
Give kudos to tab author, rate the tab!
1 2 3 4 5
comments
print report bad tab
guest
You may want to rate the tab now too:
select rating
Wanna post a correction for this tab? Suggest correction