Oops, an error
Loading. Please wait.

Un Sorbito De Champán Tab

43 views 1 this week
no commentswrite comment
1 2 3 4 5
3 more votes to show rating
add to favorites
launch autoscroll
font size
0
reset
how to read this tab
guitar tuner
Autoscroll
slow
fast
+/-
esc
set tempo
stop
Help us to improve Ultimate-Guitar.com Take our survey!
×
tonos do#m y si
en la cancion no son estos tonos pero buen asi suena mas piola

e-------------------------------------------------------------
b--4h5-5-5-4-----4-----------4h5--5--5--4-----4---------------
g-------------6----6-----------------------6-----6--------------
d---------------------6-----------------------------6----------
a-----------------------------------------------------------
e--------------------------------------------------------------

e-------------------------------------------------------------
b------------------------------------------------------------
g--6h8--8-8--6--4--6--4-----6h8--8--8--6--4--6--4----------------
d-----------------------4--------------------------4-----------
a-----------------------------------------------------------
e---------------------------------------------------------------

este no es el final pero suena bn tamb :D
e---------------------------
b------------------------------------
g---4h6--4-----------------------4--4h6----
d-----------6--4----------4--6------
a-----------------6----6-----------
e-------------------------------

teclado : base en do#m y si

               SI            DO#m
Yo te estoy mirando desde lejos.
               SI           DO#m
Ya no puede estar acá en silencio,
              SI           DO#m
sin decirte nada estoy sufriendo.
                 SI              DO#m
Por este imenso amor que llevo dentro.

FA#
Ay quizás mi corazón cansado de esperar
                             DO#m
por ese beso tuyo que no me quieres dar.
FA#
Ay quizás mi corazón cansado de esperar
                               DO#m
por ese beso tuyo que pronto llorara.

SOL#       SI      DO#m
Un sorbito de Champagne
SOL#       SI      DO#m
contigo quiero brindar
SOL#       SI    DO#m
para ver si así me das
SOL#      SI     DO#m
un poco de felicidad.

e-------------------------------------------------------------
b--4h5-5-5-4-----4-----------4h5--5--5--4-----4---------------
g-------------6----6-----------------------6-----6--------------
d---------------------6-----------------------------6----------
a-----------------------------------------------------------
e--------------------------------------------------------------

e-------------------------------------------------------------
b------------------------------------------------------------
g--6h8--8-8--6--4--6--4-----6h8--8--8--6--4--6--4----------------
d-----------------------4--------------------------4-----------
a-----------------------------------------------------------
e---------------------------------------------------------------

este no es el final pero suena bn tamb :D
e---------------------------
b------------------------------------
g---4h6--4-----------------------4--4h6----
d-----------6--4----------4--6------
a-----------------6----6-----------
e-------------------------------

tecla si - Do#m

Voy a brindar por ti mi vida.


Y
               SI            DO#m
Yo te estoy mirando desde lejos.
               SI           DO#m
Ya no puede estar acá en silencio,
              SI           DO#m
sin decirte nada estoy sufriendo.
                 SI              DO#m
Por este imenso amor que llevo dentro.

FA#
Ay quizás mi corazón cansado de esperar
                             DO#m
por ese beso tuyo que no me quieres dar.
FA#
Ay quizás mi corazón cansado de esperar
                               DO#m
por ese beso tuyo que pronto llorara.

SOL#       SI      DO#m
Un sorbito de Champagne
SOL#       SI      DO#m
contigo quiero brindar
SOL#       SI    DO#m
para ver si así me das
SOL#      SI     DO#m
un poco de felicidad.

ahi esta el tema por ahi en donde corta en sol si do
esta un toke mal pero safa
buen para los q pedia en tema ahi masomenos esta

 cualkier cosa

EL AKORDE
Suggest correction
Give kudos to tab author, rate the tab!
1 2 3 4 5
comments
print report bad tab
guest
You may want to rate the tab now too:
select rating
Wanna post a correction for this tab? Suggest correction