Oops, an error
Loading. Please wait.

Y Quién Diría Tab

31 views 1 this week
no commentswrite comment
1 2 3 4 5
3 more votes to show rating
add to favorites
launch autoscroll
font size
0
reset
how to read this tab
guitar tuner
×
Best way to learn
"Y Quién Diría"
Autoscroll
slow
fast
+/-
esc
set tempo
stop
INTRO:

e-----------8-----10---8--7--7/8--7----------------
B--5--6--8-----8---------------------10--8---------
G-------------------------------------------10--9--
D--------------------------------------------------
A--------------------------------------------------
E--------------------------------------------------

e--8--7--8---------8--7--8----------------------------------8--7--
B-----------6--6------------6--5------5--8--6--5--3--1--3---------
G----------------------------------5------------------------------
D-----------------------------------------------------------------
A-----------------------------------------------------------------
E-----------------------------------------------------------------

             C                    Am
Tu recuerdo vive aquí, muy adentro muy en mí
            F G    F G
y mi alma llora, llora.
            C                  Am
No sé cómo te perdí, cómo te dejé ir de aquí
               F G   F G
me he quedado solo, solo.

           C                               Am
Y quién diría, que por tu amor yo me perdería
                           F
que por tu amor yo me moriría
                        G
triste, solo y sin tu amor.
         C                                Am
Y quién diría, que por tu amor yo me perdería
                          F
que por tu amor enloquecería
                        G
triste, solo y sin tu amor.

        C                     Am
Te necesito amor, vuelve a mi corazón
           F                G
quítame este dolor, que no puedo soportar.
        C                   Am
Te necesito hoy, tú eres mi salvación
            F                   G
quítame el mal sabor, de esta triste soledad.

C         Am
Oh, uh no oh (amor)
F               G
  (ya no puedo más, te necesito, regresa)


e-------------------------------------------
B--------------3--5--6--5---5--8-----8------
G--------3--5---------------------7-----5---
D--3--5-------------------------------------
A-------------------------------------------
E-------------------------------------------

e--8--8--8--7--7--7--5--5--5-------------------------------------------
B-----------------------------8--8--8--7--6---6--10/12--12--10--8--10--
G----------------------------------------------------------------------
D----------------------------------------------------------------------
A----------------------------------------------------------------------
E----------------------------------------------------------------------

             C                Am
Tu recuerdo duele amor, me consumo en el dolor
            F G   F G
y mi alma llora, llora.
            C                  Am
No sé cómo te perdí, cómo te dejé ir de aquí
               F G   F G
me he quedado solo, solo.

           C                               Am
Y quién diría, que por tu amor yo me perdería
                           F
que por tu amor yo me moriría
                        G
triste, solo y sin tu amor.
         C                               Am
Y quién diría, que por tu amor enloquecería
                           F
que por tu amor yo me moriría
                        G  G# C#(*) A#m                F# - G#
triste, solo y sin tu amoooooooor,      he, eh, eh, eh.

(*)
e------------------------7---7--7--7--9--10--10---------
B--7--10--10---7--10--7--------------------------8--8---
G-------------------------------------------------------
D-------------------------------------------------------
A-------------------------------------------------------
E-------------------------------------------------------

e-----12/14--12---14--12--12--9--14--12--10--10--10--10---
B--8------------------------------------------------------
G---------------------------------------------------------
D---------------------------------------------------------
A---------------------------------------------------------
E---------------------------------------------------------

No, no. No, no

       C#                     A#m
Te necesito amor, vuelve a mi corazón
          F#                G#
quítame este dolor, que no puedo soportar.
       C#                   A#m
Te necesito hoy, tú eres mi salvación
           F#                   G#
quítame el mal sabor, de esta triste soledad.
       C#                     A#m
Te necesito amor, vuelve a mi corazón
           F#         G#
Sálvame deeeeeeel dolooooor.

            C#                   A#m
Tu recuerdo vive en mí, no sé cómo te perdí
            F# G#    C#
tu recuerdo duele, hummmm.
Suggest correction
Give kudos to tab author, rate the tab!
1 2 3 4 5
comments
print report bad tab
guest
You may want to rate the tab now too:
select rating
Wanna post a correction for this tab? Suggest correction