Oops, an error
Loading. Please wait.

La Solución Tab

11 views 1 this week
no commentswrite comment
1 2 3 4 5
3 more votes to show rating
add to favorites
launch autoscroll
font size
0
reset
how to read this tab
guitar tuner
Autoscroll
slow
fast
+/-
esc
set tempo
stop
Help us to improve Ultimate-Guitar.com Take our survey!
×
        ACORDES:
C   D   Em   Am   Bm   G       / \Slide 
O   2   0    0    2    3       *Pull Off
1   3   0    1    3    3       (x)Fret Muting
0   2   0    2    4    0
2   0   2    2    4    0
3   X   2    0    2    2
X   X   0    X    X    3


Intro:
C-D-Em (x2)
C-D-Em-C (x2)


Verso:
   C        D         Em        C
Malditas palabras que pensé en decir
   C       D         Em      C
Nunca pudieron hallar tu corazón
    C      D         Em        C
Me tragué mi vida, me tragué mi amor
    C     D        Em        C
Que daría por tener aquel momento
Y decirte!


Coro:
Am   D       Bm       Em      Am
Vaya, nunca pude haberlo imaginado
  D      G 
Eres la solución
       Am         D         Bm          Em     
De todas las preguntas que algún diá hubíese formulado
   Am        D            G
Para mi sorpresa, la respuesta eres tú.


Puente:
C-D-E-C (x4) TOCAR EN FORMA SEMI ARPEGIADA


Verso 2:
    C      D       Em     C
Dice que el silencio dice mucho amor
     C       D        Em      C
Con el nuestro nos llamábamos a gritos
     C       D        Em       C
Quizás no fue el momento y en otra ocasión
    C      D        Em       C
Volveremos a callar en algún sitio


Coro:
Am   D       Bm       Em      Am
Vaya, nunca pude haberlo imagínado
  D      G 
Eres la solución
       Am         D         Bm          Em     
De todas las preguntas que algún diá hubíese formulado
   Am        D            G
Para mi sorpresa, la respuesta eres tú.


Outro:
   C      D
Nadie sabe reír
   Bm          Em
Nadie puede llorar aquí
          C     D
En el ocaso de los dos


Solo:
             C   D    Em    C      C   D    Em    C    C
E |--------|-----------------------------------------------
B |--8-7---|-8*-8/7-7*---5*-5*-5*-(3)-5*-5/3*\5*-5-5-------
G |------7-|----------7------------------------------------
D |--------|-----------------------------------------5*-5*-
A |--------|-----------------------------------------------
E |--------|-----------------------------------------------
      

       D     Em    C      C     D     Em      C     Am  
E |--------------------------------------7**---------------
B |----------------------------8-7/5-3-5-----5*---5-7-8----
G |----------------------7\9-7-----------------------------
D |--4*-4---2*-2-2-2\4\5-----------------------------------
A |-------5------------------------------------------------
E |--------------------------------------------------------
 

     D     Bm      Em      Am     D       G
E |--5-5/3\7*-7-5*--------------------7**-7**--------------
B |----------------8*-8-7-------------5**------------------
G |-----------------------9-7-9-7-7-9----------------------
D |--------------------------------------------------------
A |--------------------------------------------------------
E |--------------------------------------------------------


Puente:
C-D-Em-C (x4) Semi Arpegiado

Final:
Am  D    Bm  Em  Am D  G
Vaaayyaaa
Am  D    Bm  Em  Am D  G
Vaaayyaaa             La respueste eres Tú 


Aquí están los acordes y el SOLO, espero que les guste
Suggest correction
Give kudos to tab author, rate the tab!
1 2 3 4 5
comments
print report bad tab
guest
You may want to rate the tab now too:
select rating
Wanna post a correction for this tab? Suggest correction