Oops, an error
Loading. Please wait.

La Solución Bass Tab

version 1
version 1

Whole song

13 views 1 this week
no commentswrite comment
1 2 3 4 5
3 more votes to show rating
add to favorites
launch autoscroll
font size
0
reset
guitar tuner
×
Best way to learn
"La Solución"
Autoscroll
slow
fast
+/-
esc
set tempo
stop
Intro:
(Sólo entran bateria con guitarra)

Verso:
G |----------|--------------------------
D |----------|--------------------------  (X3)
A |-??12\3?--|-3-3-5-5-5/7-7-5/7-7-7-5-- 
E |----------|--------------------------
?esto es solo
 el 1ro de 4?

Fill in:
G |----------------------
D |----------------------  (este pedazo antes del coro
A |--3-3-5-5-5/7?5?3?2-?-   en la 4ta vez del verso)
E |----------------------

Coro:
G |----------------------|--------------------------------
D |--------------4-------|--------------------------------
A |--0-2?5-5-5-----7-7-5-|-0-2?5-5-5/10-10-10\9/10-9-7-5--
E |------------7---------|--------------------------------

G |----------------------|--------------------------------
D |--------------4-------|--------------------------------
A |--0-2-5-5-5-----7-7-5-|-0-2-5-5-5/10\9/10--------------
E |------------7---------|--------------------------------

Puente:
G |----------|--------------------------
D |----------|-------------------------- (X3)
A |-??12\3?--|-3-3-5-5-5/7-7-5/7-7-7-5?- 
E |----------|--------------------------
             ?Después de la 3ra el FILL IN?

Verso 2:
G |----------|--------------------------|---------------9-
D |----------|--------------------------|-----------------
A |-??12\3?--|-3-3-5-5-5/7-7-5/7-7-7-5--|-3-3-5-5-5/7-7--- 
E |----------|--------------------------|-----------------

G |--7--------|-------------------------|-----------------
D |----9-7----|-------------------------|-----------------
A |--------10-|-3-3-5-5-5/7-7-5/7-7-7-5-|--3-3-5-5-5/7----
E |-----------|-------------------------|-----------------

G |--------\----------------------------------------------
D |--------\----------------------------------------------
A |-?5?3?2?\----------------------------------------------
E |--------\----------------------------------------------

Coro:
G |----------------------|--------------------------------
D |--------------4-------|--------------------------------
A |--0-2?5-5-5-----7-7-5-|-0-2?5-5-5/10-10-10\9/10-9-7-5--
E |------------7---------|--------------------------------

G |----------------------|--------------------------------
D |--------------4-------|--------------------------------
A |--0-2-5-5-5-----7-7-5-|-0-2-5-5-5/10\9/10--------------
E |------------7---------|--------------------------------

Outro:
G |-------------------------------------------------------
D |-------------------------------------------------------
A |--3-----5-----2-----7-----3?-2-------------------------
E |-------------------------------------------------------

Solo de Guitarra:
G |----------|--------------------------|-----------------
D |----------|--------------------------|-----------------
A |-??12\3?--|-3-3-5-5-5/7-7-5/7-7-7-5--|-3-3-5-5-5/7?7-7-
E |----------|--------------------------|-----------------

G |--------------|--------------------------|-------------
D |--5/7-5-------|--------------------------|-------------
A |--------7-5-0-|-3-3-5-5-5/7-7-5/7-7-7-5--|-3-3-5-5-5/7-
E |--------------|--------------------------|-------------

G |--------|----------------------|-----------------------
D |--------|--------------4-------|-----------------------
A |-?5?3?2?|--0-2-5-5-5-----7-7-5-|-0-2-5-5-5/10\9/10-----
E |--------|------------7---------|-----------------------

Después: 
PUENTE
CORO

Aqui está, esta canción tiene un bajo muy rítmico la verdad, 
espero que les guste.!
Suggest correction
Give kudos to tab author, rate the tab!
1 2 3 4 5
comments
print report bad tab
guest
You may want to rate the tab now too:
select rating
Wanna post a correction for this tab? Suggest correction