Oops, an error
Loading. Please wait.

La Solución Bass Tab

version 2
version 2

Whole song

5 views 1 this week
no commentswrite comment
1 2 3 4 5
3 more votes to show rating
add to favorites
launch autoscroll
font size
0
reset
guitar tuner
Autoscroll
slow
fast
+/-
esc
set tempo
stop
Help us to improve Ultimate-Guitar.com Take our survey!
×
'ESTA ES BASICAMENTE CASI LO MISMO QUE LA VERSION ORIGINAL
SOLO QUE CON UN PAR DE CAMBIOS DIFERENTES, COMO EN LA ENTRADA
Y ANTES DEL Solo de Guitarra. Por si no han visto la version
original aqui mismo se las puse...

Intro:
(Sólo entra bateria) después guitarra
 

Verso:
G |-------------------|--------------------------
D |-------------------|--------------------------  (X3)
A |--'7\5/7-7\5/7-5'--|-3-3-5-5-5/7-7-5/7-7-7-5-- 
E |-------------------|--------------------------
     'esto es solo
       el 1ro de 4'


Fill in:
G |----------------------
D |----------------------  (este pedazo antes del coro
A |--3-3-5-5-5/7-5-3-2---   en la 4ta vez del verso)
E |----------------------


Coro:
G |----------------------|--------------------------------
D |--------------4-------|--------------------------------
A |--0-2-5-5-5-----7-7-5-|-0-2-5-5-5/10-10-10\9/10-9-7-5--
E |------------7---------|--------------------------------


G |----------------------|--------------------------------
D |--------------4-------|--------------------------------
A |--0-2-5-5-5-----7-7-5-|-0-2-5-5-5/10\9/10--------------
E |------------7---------|--------------------------------

Puente:
G |----------|--------------------------
D |----------|-------------------------- (X3)
A |--'12\3'--|-3-3-5-5-5/7-7-5/7-7-7-5-- 
E |----------|--------------------------
             'Después de la 3ra el FILL IN'


Verso 2:
G |----------|--------------------------|---------------9-
D |----------|--------------------------|-----------------
A |--'12\3'--|-3-3-5-5-5/7-7-5/7-7-7-5--|-3-3-5-5-5/7-7--- 
E |----------|--------------------------|-----------------


G |--7--------|-------------------------|-----------------
D |----9-7----|-------------------------|-----------------
A |--------10-|-3-3-5-5-5/7-7-5/7-7-7-5-|--3-3-5-5-5/7----
E |-----------|-------------------------|-----------------


G |--------\----------------------------------------------
D |--------\----------------------------------------------
A |--5-3-2-\----------------------------------------------
E |--------\----------------------------------------------


*TOCAR:
       Coro


Outro:
G |-------------------------------------------------------
D |-------------------------------------------------------
A |--3-----5-----2-----7-----3--2-------------------------
E |-------------------------------------------------------


            * AQUI ES DONDE ESTA LO DIFERENTE *
Estribillo:
G |--------------------------------------------------------
D |--------------------------------------------------------
A |--3-3-5---3/5-7-7-5-7-5\3---3-3-5---3/5-7-7-7-5---12/3-- 
E |--------------------------------------------------------
                    (REPETIR DOS VECES)

G |--------------------------------------------------------
D |--------------------------------------------------------
A |--3-3-0/3-3-3---5-5-3/5-5-5---7-7-5/7-7-7---7-7-5/7-7-7-
E |--------------------------------------------------------
                    (REPETIR DIEZ VECES)

G |------------------|---------------|---------------|-----
D |--9-7-5/7-5---5-7-|-9-7-5/7---5-7-|-9-7-5/7---5-7-|-2---
A |------------7-----|---------7-----|---------7-----|-----
E |------------------|---------------|---------------|-----


G |------------------
D |--4---5---7-------
A |------------------
E |------------------ 


Solo de Guitarra:
G |----------|--------------------------|-----------------
D |----------|--------------------------|-----------------
A |--'12\3'--|-3-3-5-5-5/7-7-5/7-7-7-5--|-3-3-5-5-5/7-7-7-
E |----------|--------------------------|-----------------


G |--------------|--------------------------|-------------
D |--5/7-5-------|--------------------------|-------------
A |--------7-5-0-|-3-3-5-5-5/7-7-5/7-7-7-5--|-3-3-5-5-5/7-
E |--------------|--------------------------|-------------


G |--------|----------------------|-----------------------
D |--------|--------------4-------|-----------------------
A |--5-3-2-|--0-2-5-5-5-----7-7-5-|-0-2-5-5-5/10\9/10-----
E |--------|------------7---------|-----------------------


*TOCAR: 
       PUENTE
       CORO


Como pudieron ver no es del todo igual, la verdad me gusta mas
esta version que la original, espero que a ustedes tambien!
Suggest correction
Give kudos to tab author, rate the tab!
1 2 3 4 5
comments
print report bad tab
guest
You may want to rate the tab now too:
select rating
Wanna post a correction for this tab? Suggest correction