Oops, an error
Loading. Please wait.

Mírame Tab

8 views 1 this week
no commentswrite comment
1 2 3 4 5
3 more votes to show rating
add to favorites
launch autoscroll
font size
0
reset
how to read this tab
guitar tuner
Autoscroll
slow
fast
+/-
esc
set tempo
stop
Help us to improve Ultimate-Guitar.com Take our survey!
×
NOTA: esta es otra version de la que aparece, por favor borren la
      otra TABLATURA que tambien era mia.

/ \ Slide
~^  Pull Off

   
Post Chorus: (es el mismo de mi otra transcripción)
   
   A5 A5 G5 E5 C5 C5 C5 C5 C5 C5D5 D5 D5 D5??????
E |----------------------------------------------
B |----------------------------------------------
G |------------5--5--5--5--5--5/7--7--7--7-------
D |-7--7\5--2--5--5--5--5--5--5/7--7--7--7-------
A |-7--7\5--2--3--3--3--3--3--3/5--5--5--5-------
E |-5--5\3--0------------------------------------


SOLO:
     
     G      Em       C       D      G       Em       C 
E |--------2--2/3------------------------------------------
B |-----3---------1---3/5---3-----7-8-10~^/12---12\10-7/8\7
G |--4-----------------------------------------------------
D |--------------------------------------------------------
A |--------------------------------------------------------
E |--------------------------------------------------------

       D
E |-----------------------------
B |--5--3-3/5-5-3(mantener nota)
G |-----------------------------
D |-----------------------------
A |-----------------------------
E |-----------------------------
Suggest correction
Give kudos to tab author, rate the tab!
1 2 3 4 5
comments
print report bad tab
guest
You may want to rate the tab now too:
select rating
Wanna post a correction for this tab? Suggest correction