Oops, an error
Loading. Please wait.

Negro José Bass Tab

68 views 1 this week
no commentswrite comment
1 2 3 4 5
3 more votes to show rating
add to favorites
launch autoscroll
font size
0
reset
guitar tuner
×
Best way to learn
"Negro José"
Autoscroll
slow
fast
+/-
esc
set tempo
stop
intro:


|------------------------------------------------------------------|
|--------------------------------------5-8----7-10----4-7----------|
|----5--8----5-8-------10-------10---6------8-------5--------------|
|--6-------6------8-11-----8-11----------------------------6-5-3-1-|


|----------------------------------------------------------------------|
|--------------------------------------5-8----7-10---------------------|
|----5--8----5-8-------10-------10---6------8---------4-8--------------|
|--6-------6------8-11-----8-11---------------------5------3----3-3--3-|


verso:
en un pueblo olvidado.........


|------------------------------------------------------------------|
|------------------------------------------------------------------|
|----5--8----5-8----5-8----5-8--------10-------10-------10------10-|
|--6-------6------6------6-------8-11-----8-11-----8-11----8-11----|


en el pueblo lo llamaban negro.........

|----------------------------------------------------------------|
|----5-8----7-10----4-7-----------5-8----7-10--------------------|
|--6------8-------5---------5---6------8---------5-8-------------|
|-----------------------3-6--------------------6------3---3-3--3-|


y sigue igual hasta poco antes del coro que es:

en el pueblo lo llamaban negro........
|-------------------------------------------------------------|
|----5-8----7-10----4-7-----------5-8----7-10-----------------|
|--6------8-------5---------5---6------8---------5-8------5---|
|-----------------------3-6--------------------6------3-----3-|


y el coro que es..........
perdoname si te digo negro.........

|------------------------------------------------------------------------|
|----4-7----4-7----4-7----4-7--------------------------------4-7----4-7--|
|--5------5------5------5----------5------5------5------5--5------5------|
|------------------------------3-6----3-6----3-6----3-6------------------|


pues esa es toda la cancion, no es totalmente igual pero si queda,
si tienen dudas o algo sobre cancion, mi mail es
slash_jcl@
Suggest correction
Give kudos to tab author, rate the tab!
1 2 3 4 5
comments
print report bad tab
guest
You may want to rate the tab now too:
select rating
Wanna post a correction for this tab? Suggest correction