Oops, an error
Loading. Please wait.

Lejos De Aquí Tab

by Soraya
37 views 1 this week
no commentswrite comment
1 2 3 4 5
3 more votes to show rating
add to favorites
×
Save as Personal and add changes to this tab that will be seen only by you. Learn more ›
×
You can save this tab as Personal to edit and correct it or add notes. All changes will be seen only by you. Learn more »
save as personal
new!
launch autoscroll
font size
0
reset
how to read this tab
guitar tuner
Autoscroll
slow
fast
+/-
esc
set tempo
stop
al principio

E-------------------------------------------------------------------
A------------------------------------------------------------------------
D-------------------------------------------------------------
G--------------------------------------------3-1----------------3-1-3--3-1
B--4-4-4-4-2-1-2-1-1-------4-4-4-4-2-1-2-1-1-------4-4-4-4-2-1-2-1-1--1------1
E--------------------------------------------------------------------


(capo en el primer traste)

C9            G
es algo en el aire,
C9            G
algo que me persigue
C9            G         C9          G
algo que me llena,de recuerdos del ayer
C9           G
ya lo debo saber
C9             G
ya lo debo comprender

cuando se presenta,no hay mas que pueda hacer
          C9      G
me lleva lejos de aqui
          C9        G
donde yo estuve una vez
           C9    G
donde yo nunca jamas
       C9        G
pense que iba a volver
C9               G
cuando veo a esa niña
C9             G
cuando veo su mirar
  C9                 G
aunque el esfuerzo es grande
      C9        G
es imposible olvidar
C9            G
lucho con su imagen
C9           G
su recuerdo,su pasado
C9             G
lucho con el sentimiento
        C9            G
de ver que me la han robado
          C9       G
me lleva lejos de aqui
          C9        G
donde yo estuve una vez
          C9    G
donde yo nunca jamas
       C9         G
pense que iba a volver
E
si me voy de aqui
    A          F
no tarda en encontrarme
E
me amenaza y dice
  A         F
nunca vas a matarme
     A        B        E       A
me pregunto cuando, y como la perdi
                  B          E          A
me pregunto si algun dia yo sere lo que fui.
          C9       G
me lleva lejos de aqui
           C9        G
donde yo estuve una vez
          C9     G
donde yo nunca jamas
       C9        G
pense que iba a volver(*3)

C9        G
lejos de aqui
  C9       G
estuve una vez
    C9     G
yo nunca jamas
      C9         G
pense que iba a volver


al final


E-------------------------------------------------
A-------------------------------------------------
D-------------------------------------------------
G-------------------------------------------------------------3-1-3---3-1-
B-4-4-4-4---------------------------------------4-4-4-4-2-1--1------1---
E--------3-4----------11-11-11-11-9-8-9-11-8------------


E----------------------------------------------------------
A-----------------------------------------------------------
D---------------------------------------------------------
G-----------------------------------------------
B-4-4-4-4-2-1----4-4-4-4---------------------------------11-9-11--11-8
E------------------------3-4---------11-11-11-8-9-11-11---8------8---------
Suggest correction
Give kudos to tab author, rate the tab!
1 2 3 4 5
comments
print report bad tab
guest
Wanna post a correction for this tab? Suggest correction